Coheed And Cambria - Suffering Chords & Tabs

 

Suffering Chords & Tabs

Coheed And Cambria Chords & Tabs

Version: 2 Type: Tab

Suffering Tab

   
                      ------------------------------------
                       The Suffering - Coheed and Cambria
                      ------------------------------------
Tabbed by:
Email:

Tuning:DROP D
Intro 1 time + Verse  3 times                                             
e|-----------------------------------------------------------------------|
B|-----------------------------------------------------------------------|
G|-----------------------------------------------------------------6-----|   
D|----4-----4--------1-1--1-1--1-1---------------------2h4-4/6-66/8------|
A|-9\--6-444-6\-4-6\-1-1--1-1--1-1-4-6\----6-4-----4-2----------------9\-|
D|-9\----------------1-1--1-1--1-1------------4646--------------------9\-|
     
3rd time in verse - ending chord changes to                                 
e|---|
B|---|
G|-6-|   
D|-6-|
A|-4-|
D|---|

Chorus
Lead Guitar
e|--7-7--------7-7------------------------------------------4h7p4-|
B|-9-9-9-7-7--9-9-9-7---------------------------------------------|
G|--------8-8--------8-4h6-4---6-4h6p4---4--4h6-4-----------------|
D|---------------------------4--------6--4----------2-2-2-2-------|
A|---------------------------4-----------2----------2-2-2-2-------|
D|---------------------------4----------------------2-2-2-2-------|

Rhytm Guitar-Chords
e|--7-7-----------------------------------------------------|
B|-9-9-9----------------------------------------------------|
G|wait for lead----------------------------44444444---------|
D|------2222222222222222246666666644444444444444444-2-2-2-2-|
A|------2222222222222222246666666644444444422222222-2-2-2-2-|
D|------22222222222222222466666666444444444---------2-2-2-2-|

Verse  3 times

Chorus 1 time

slide up to 2nd chorus
e|----|
B|----|
G|----|
D|----|
A|-9/-|
D|-9/-|

2nd Chorus
Lead Guitar
e|------2-----------------2---------------------------------|
B|-----4-5-4-5-4-2-------4-4-5-4-5-4-2-4444-2222-44444-5555-|
G|-4p3-------------4-4p3------------------------------------|
D|----4-----------------4-----------------------------------|
A|----------------------------------------------------------|
D|----------------------------------------------------------|

e|----------------------------------|
B|----------------------------------|
G|-4-4p3-4p3---4p3-4p3---4p3-4p3-4--|
D|----------4-4-------4-2-------4---|
A|----------------------------------|
D|----------------------------------|
[ Tab from: http://www.guitartabs.cc/tabs/c/coheed_and_cambria/suffering_tab_ver_2.html ]
e|------2------------------------------------------------------|
B|-----4-5-4-5-4-2------4---4---6b(8)4---4444-2222-44444-5555--|
G|-4p3-------------4-4h6-4h6-4h6------6------------------------|
D|----4--------------------------------------------------------|
A|-------------------------------------------------------------|
D|-------------------------------------------------------------|

e|--------------------------|
B|--------------------------|
G|-4-4p3-4p3---4p3-4p3--6---|
D|----------4-4-------4-6---|
A|----------------------4---|
D|--------------------------|

2nd Chorus
Rhythm Guitar

e|-----------------------------------------------------------|
B|-4444444444444444------------------------------------------|
G|-4444444444444444------------------------------------------|
D|-44444444444444444444444444444444666666662222222244444444--|
A|-22222222222222224444444444444444666666662222222244444444--|
D|-----------------4444444444444444666666662222222244444444--|

other cool bendy thing before 2nd chorus
e|---------------|
B|---------------|
G|-18b(19)-16----|
D|-18b(19)-16-16-|
A|------------14-|
D|---------------|

End of 2nd Chorus
Lead Guitar
e|------2------------------------------------------------------|
B|-----4-5-4-5-4-2------4---4---6b(8)4--12b(14)-12-44444-5555--|
G|-4p3-------------4-4h6-4h6-4h6------6------------------------|
D|----4--------------------------------------------------------|
A|-------------------------------------------------------------|
D|-------------------------------------------------------------|

e|----------------------------------------------------------------|
B|----------------------------------------------------------------|
G|-4-4p3-4p3---4p3-4p3----4p3---4p3---4p3-------------------------|
D|----------4-4-------4-4----4-4---4-4---4-4----------9\----------|
A|--------------------------------------------7p6-7p6-9\----------|
D|-----------------------------------------------9---99\----------|

Rhythm Guitar
e|--------------------------------------------------------------------------|
B|4444444444444444----------------------------------------------------------|
G|4444444444444444----------------------------------------------------------|
D|4444444444444444444444444444444466666666222222224444444444444444---------9|
A|2222222222222222444444444444444466666666222222224444444444444444-7p6-7p6-9|
D|-----------------44444444444444446666666622222224444444444444444----9---99|


| /  slide up
| \  slide down
| h  hammer-on
| p  pull-off
| ~  vibrato
| +  harmonic
| x  Mute note
| b  Bend(fret)