Coheed And Cambria - Iro-bot Chords & Tabs

 

Iro-bot Chords & Tabs

Coheed And Cambria Chords & Tabs

Version: 2 Type: Tab 0 ratings
1 star 2 stars 3 stars 4 stars 5 stars
comments

Iro-bot Tab

Tuning : standard


guitar 1
e|----------------------------------7~----|
b|-8---8*-8---8*-8---8*-8-10-8-10-8-0-----|
g|---0------0------0----------------------|
D|----------------------------------------|
A|-8---8*-8---8*-8---8*-0----0----0-------|
E|----------------------------------------|

guitar 2
e|-----7---7--7---7------|
b|------8------8---------|
g|-------0---7--0---7----|
D|-7*77------------------|
A|-----------------------|
E|-----------------------|

guitar 1
e|---------------------------------------|
b|---------------------------------------|
g|-------0~-------0~-------0-------------|
D|---------------------------------------|
A|----3-3------3-3------3-3---3\5/3-2-0~-|
E|-0h1------0h1------0h1-----1-----------|

guitar 2
e|---------0-------0-------0------0----|
b|-5h6p5-----5h6p5---5h6p5---5h6p5-6---|
g|--------5-------5-------5------------|
D|-------------------------------------|
A|-------------------------------------|
E|-------------------------------------|

both guitars
e|--------------------------------------------------------------|
b|--------------------------------------------------------------|
g|--------------------------------------------------------------|
D|--------------------------------------------------------------| repeat as needed
A|-9-9-9-9-9-9-9-9-9---5-5-5-5-5-5-5-5-5-2-2-2-2-11-11-11-11----|
E|-7-7-7-7-7-7-7-7-7-0-3-3-3-3-3-3-3-3-3-0-0-0-0-0--0--0--0-----|
[ Tab from: http://www.guitartabs.cc/tabs/c/coheed_and_cambria/iro_bot_tab_ver_2.html ]
guitar 1
e|----------------------------------7~----|
b|-8---8*-8---8*-8---8*-8-10-8-10-8-0-----|
g|---0------0------0----------------------|
D|----------------------------------------|
A|-8---8*-8---8*-8---8*-0----0----0-------|
E|----------------------------------------|

guitar 2
e|-----7---7--7---7------|
b|------8------8---------|
g|-------0---7--0---7----|
D|-7*77------------------|
A|-----------------------|
E|-----------------------|

guitar 1
e|---------------------------------------|
b|---------------------------------------|
g|-------0~-------0~-------0-------------|
D|---------------------------------------|
A|----3-3------3-3------3-3---3\5/3-2-0~-|
E|-0h1------0h1------0h1-----1-----------|

guitar 2
e|---------0-------0-------0------0----|
b|-5h6p5-----5h6p5---5h6p5---5h6p5-6---|
g|--------5-------5-------5------------|
D|-------------------------------------|
A|-------------------------------------|
E|-------------------------------------|

both guitars
e|--------------------------------------------------------------|
b|--------------------------------------------------------------|
g|--------------------------------------------------------------|
D|--------------------------------------------------------------| 
A|-9-9-9-9-9-9-9-9-9---5-5-5-5-5-5-5-5-5-2-2-2-2-11-11-11-11----|
E|-7-7-7-7-7-7-7-7-7-0-3-3-3-3-3-3-3-3-3-0-0-0-0-0--0--0--0-----|

outro
e|-7--5~--|
b|--------|
g|--6-----|
D|--------|
A|--------|
E|--------|

Questions?Comments?

my sn is domed55@aol.com
My AIM sn is domed55
Comments