Coheed And Cambria - Iro-bot Chords & Tabs

 

Iro-bot Chords & Tabs

Coheed And Cambria Chords & Tabs

Version: 1 Type: Tab 0 ratings
1 star 2 stars 3 stars 4 stars 5 stars
comments

Iro-bot Tab

I, Robot:
standard tuning. this is the secret track at the end of second stage turbine blade. 
there is also a mini version of it at the end of in keeping secrents of silent
earth:3, but we wont
get into that. i got this tab from the message boards at coheedandcambria.com and made a few
alteration/simplifications to it so it would be easier to follow. enjoy. this song is fantastic

CLAUDIO:
verse
|---------------------------------------------------------|10x
|-8-----------8-----------8-----------8h10-8h10-8h10-8p0--|
|-----0-----------0-----------0---------------------------|
|---------------------------------------------------------|
|-8-------8---8-------8---8-------8---0----0----0----0----|
|---------------------------------------------------------|

pre-chorus (you've been a bad boy)
|---------------------------------------------------|5x
|---------------------------------------------------|
|---------0------------0------------0---------------|
|---------------------------------------------------|
|-----3------------3------------3------/5---4p2-0---|
|-0h1---1------0h1---1------0h1---1-----------------|
[ Tab from: http://www.guitartabs.cc/tabs/c/coheed_and_cambria/iro_bot_tab.html ]
both guitars
|--------------------------------------------------------------|5x
|--------------------------------------------------------------|
|--------------------------------------------------------------|
|--------------------------------------------------------------| repeat as needed
|-7-7-7-7-7-7-7-7-7-0-3-3-3-3-3-3-3-3-3-0-0-0-0-0--0--0--0-----|
|-9-9-9-9-9-9-9-9-9---5-5-5-5-5-5-5-5-5-2-2-2-2-11-11-11-11----|

verse
|---------------------------------------------------------|10x
|-8-----------8-----------8-----------8h10-8h10-8h10-8p0--|
|-----0-----------0-----------0---------------------------|
|---------------------------------------------------------|
|-8-------8---8-------8---8-------8---0----0----0----0----|
|---------------------------------------------------------|

pre-chorus (you've been a bad boy)
|---------------------------------------------------|5x
|---------------------------------------------------|
|---------0------------0------------0---------------|
|---------------------------------------------------|
|-----3------------3------------3------/5---4p2-0---|
|-0h1---1------0h1---1------0h1---1-----------------|

both guitars
|--------------------------------------------------------------|10x
|--------------------------------------------------------------|
|--------------------------------------------------------------|
|--------------------------------------------------------------| 
|-9-9-9-9-9-9-9-9-9---5-5-5-5-5-5-5-5-5-2-2-2-2-11-11-11-11----|
|-7-7-7-7-7-7-7-7-7-0-3-3-3-3-3-3-3-3-3-0-0-0-0-0--0--0--0-----|

outro
|-7--5~--|
|--------|
|--6-----|
|--------|
|--------|
|--------|
Comments