Coheed And Cambria - In Keeping Secrets Of Silent Earth Chords & Tabs

 

In Keeping Secrets Of Silent Earth Chords & Tabs

Coheed And Cambria Chords & Tabs

Version: 1 Type: Tab 7 ratings
1 star 2 stars 3 stars 4 stars 5 stars
comments

In Keeping Secrets Of Silent Earth Tab

 Just wanna say hey to everyone, this is my first tab, but i'm not 
gonna put some crap up here like all of the other people who say this
is their first tab, this is real, good, correct tabs, and it is about
damn time we got some coheed on this site, their freakin awesome


Intro (First Guitar)
e|----------------------------------------------------------|
B|----------------------------------------------------------|
G|----------------------------------------------------------|
D|---6-6----6-6----6-6/7/6---6-6---6--6-7-9-7-6--6/7/6------|
A|-4------4------4--------4---------------------------------|
E|-------------------------0-----0--------------------------|
Intro cont... (play right through as if it was the same line)
e|----------------------------------------------------------:|
B|----------------------------------------------------------:|
G|-----------------------------------------------4~---------:| (X2)
D|---4-4-4---4-4----4-4---4/6/4/2----2-2-2--2-2-------------:|
A|-2--------2-----2----------------0-------0----------------:|
E|----------------------------------------------------------:| 

Intro (Second Guitar) ... 
[play this only during second refrain of first guitar intro]
e|---------------------------------------------------------------|
B|-9~---7~---------9~---12~--12-10-9-7--6-6-5-6~--------9~---12~~|
G|----------8-9-11-------------------------------8-9-11----------|
D|---------------------------------------------------------------|
A|---------------------------------------------------------------|
E|---------------------------------------------------------------|

[ Tab from: http://www.guitartabs.cc/tabs/c/coheed_and_cambria/in_keeping_secrets_of_silent_earth_tab.html ]
Then right after ther the 12, go into this 
e|-------------------------------------------------------------:|
B|-------------------------------------------------------------:|
G|-7-7-7-6-6-6-7-7-7-6-6-6-7-7-7-6-6-6-/--9-7-6----------------:|
D|-9-9-9-8-8-8-9-9-9-8-8-8-9-9-9-8-8-8-/-11-9-8----------------:|(X2)
A|-9-9-9-8-8-8-9-9-9-8-8-8-9-9-9-8-8-8-/-11-9-8----------------:|
E|-------------------------------------------------------------:|

Then straight into this
e|-------------------------------|-------------------------------
B|-------------------------------|Something is then played on the 
G|-------------------4-----------|Top 3 strings that i'm not sure
D|-------2-3-5-6-4-2---2-1-2-1---|Of yet, but am angry about and-
A|-2-3-5-----------------------2-|will soon figure it out--------
E|-------------------------------|-------------------------------

Chorus - oooooh yeah
e|-------------------------------------------------------------:|
B|-------------------------------------------------------------:|
G|-------------------------------------------------------------:|
D|-6-6--6--6---------------------------------------------------:|(x4)
A|-4-4--4-7-7-6--6-7-9-9--9-9-9/7-7-7--6h7p6-------------------:|
E|-------------------7-7--7-7-7/5-5-5--------------------------:|

Well, i know thats only until the chorus... but as you can see, thats
Still alot of tabbing, its 12:48 at night right now, and i've got school
so i'd better get to bed, i'll put the rest up later, and keep and eye
out, i'm gonna be puttin up some more stuff from their new cd, and
some good Qotsa tabs too, so until next time, i'm out, peace.

(E-mail me at Porschedriver7@aol.com)

Comments