Coheed And Cambria - In Keeping Secrets Of Silent Earth 3 Chords & Tabs

 

In Keeping Secrets Of Silent Earth 3 Chords & Tabs

Coheed And Cambria Chords & Tabs

Version: 7 Type: Tab 0 ratings
1 star 2 stars 3 stars 4 stars 5 stars
comments

In Keeping Secrets Of Silent Earth 3 Tab

---------------------------------------------------------------------------
 In Keeping Secrets Of Silent Earth: 3 - Coheed And Cambria
---------------------------------------------------------------------------
Tabbed by: OnlyOnTuesdays
Aim: Th3 Wh1tee
Email: ruskeymalchek1@yahoo.com

Coheed And Cambria

In Keeping Secrets Of silent Earth: 3

Tuning: Standard eBGDAE

This is my first tab.. but i've seen mistakes in a lot of tabs
So I decided to tab for myself
Ok here we Go 

Key 

.  - palm mute
/  - slide up and down to
b  - Bend
() - Natural harmonics
*  - Pinch harmonics
h  - Hammer
p  - Pull off
"  - Tremolo Picking
x  - Mute



Claudio:::: Intro Clean .. Lead comes on second time 

e|------------------------------------------------------------------------|
B|------------------------------------------------------------------------|
G|------------------------------------------------------------------------|
D|------------------------------------------------------------------------|
A|---11-11---11-11---11---12-11-----11-11---11-11---11-12-14-12-11-11h12-0|
E|-9-------9-------9----9-------9-0-------0-------0-----------------------|

e|--------------------------------------------|
B|--------------------------------------------|
G|--------------------------------------------|
D|------------------------------------------9-|
A|-----9-9---9-9---9---9/11-9-7-----7-7---7---|
E|-0h7-----7-----7---7----------0h5-----5-----|


Travis:::: Lead To Intro On Second time ( The 13's get a lot of vibrato)

e|------------------------------------------------------|
B|------------------------------------------------------|
G|--9~-8~-6-8-9-11~-13~~-11-9-8-9-8-6-8~-6-8-9-11~-13~~-|
D|------------------------------------------------------|
A|------------------------------------------------------|
E|------------------------------------------------------|


Claudio:::: Pre-Verse 

e|------------------------------------------------|
B|------------------------------------------------|
G|------------------------------------------------|
D|--11------2-2-2-2-2-----9-------7-7-7-----------|
A|--11-x16--2-2-2-2-2-x4--9-x16---7-7-7-x8--------|
E|--9-------0-0-0-0-0-----7-------5-5-5-----------|
              . . . .               . .

Travis:::: Pre-Verse


e|----------------------|--|
B|----------------------|--|
G|---555444----7-5-4-5--|--|
D|---666666-x3-6-6-6-6--|x2|
A|---666666----6-6-6-6--|--|
E|----------------------|--|

e|-----------------------------------7----7----7-----7---4----4----4----4--|
B|-------------------------------------------------------------------------|
G|--------------------------------66---66---66---66---66---66---66---66----|
D|-------------6-----9-----------------------------------------------------|
A|-------6-7-9---9-7---7-6-7-6---------------------------------------------|
E|-6-7-9-----------------------7-------------------------------------------|
                                  ..   ..   ..   ..   ..   ..   ..   ..


Verse   Travis And Claudio:::: 

e|----------------------------------------|--|
B|----------------------------------------|--|
G|----------------------------------8/9\8-|--|
D|-----------6---------99--999--77--x-x-x-|x8|
A|-4-4---4-7---7-6-6h7-99--999--77--6/7\6-|--|
E|---------------------77--777--55--------|--|
   . .             . . ..  ...  ..


Chorus Part 1

e|----------------------------------------|--|
B|----------------------------------------|--|
G|-----------------------6----------------|--|
D|--4-44-4-44-4-44-4-44--6-6-7-99--6/7\6--|--|
A|--4-44-4-44-4-44-4-44--4-6-7-99--6/7\6--|x3|
E|--2-00-2-00-2-00-2-00----4-5-77--4/5\4--|--|
      ..   ..   ..   ..

Chorus Part 1 Cont

e|---------------------------------------|
B|---------------------------------------|
G|---------------------------------------|
D|--4-44-4-44-4-44-4-44--6666-7777-------|
A|--4-44-4-44-4-44-4-44--6666-7777-------|
E|--2-00-2-00-2-00-2-00--4444-5555-------|
      ..   ..   ..   ..


Chorus Part 2 

e|------------------------------------------------|
B|------------------------------------------------|
G|------------------------------------------------|
D|--11------2-2-2-2-2-----9-------7-7-7-----------|
A|--11-x16--2-2-2-2-2-x4--9-x16---7-7-7-x8--------|
E|--9-------0-0-0-0-0-----7-------5-5-5-----------|
              . . . .               . .
                  
                   
Chorus Part 2 Lead   
e|-----------------------|
B|-----------------------|
G|-13--13\11--11\9--9/11-|
D|-x---x-------x----x----| This is played during the E
A|-11--11\9----9\7--7/9--| 
E|-----------------------|


Verse   Travis And Claudio:::: 

e|----------------------------------------|--|
B|----------------------------------------|--|
G|----------------------------------8/9\8-|--|
D|-----------6---------99--999--77--x-x-x-|x8|
A|-4-4---4-7---7-6-6h7-99--999--77--6/7\6-|--|
E|---------------------77--777--55--------|--|
   . .             . . ..  ...  ..


Chorus Part 1
[ Tab from: http://www.guitartabs.cc/tabs/c/coheed_and_cambria/in_keeping_secrets_of_silent_earth_3_tab_ver_7.html ]
e|----------------------------------------|--|
B|----------------------------------------|--|
G|-----------------------6----------------|--|
D|--4-44-4-44-4-44-4-44--6-6-7-99--6/7\6--|--|
A|--4-44-4-44-4-44-4-44--4-6-7-99--6/7\6--|x3|
E|--2-00-2-00-2-00-2-00----4-5-77--4/5\4--|--|
      ..   ..   ..   ..

Chorus Part 1 Cont

e|---------------------------------------|
B|---------------------------------------|
G|---------------------------------------|
D|--4-44-4-44-4-44-4-44--6666-7777-------|
A|--4-44-4-44-4-44-4-44--6666-7777-------|
E|--2-00-2-00-2-00-2-00--4444-5555-------|
      ..   ..   ..   ..


Chorus Part 2 

e|------------------------------------------------|--|
B|------------------------------------------------|--|
G|------------------------------------------------|--|
D|--11------2-2-2-2-2-----9-------7-7-7-----------|x2|
A|--11-x16--2-2-2-2-2-x4--9-x16---7-7-7-x8--------|--|
E|--9-------0-0-0-0-0-----7-------5-5-5-----------|--|
              . . . .               . .


Chorus Part 2 Lead   ^^
e|-----------------------|
B|-----------------------|
G|-13--13\11--11\9--9/11-|
D|-x---x-------x----x----| This is played where the arrow is pointing
A|-11--11\9----9\7--7/9--| 
E|-----------------------|

Interlude
e|---------------------------------------------------------------|--|
B|---------------------------------------------------------------|--|
G|---------------------------------------------------4-2---------|--|
D|-2-2----------2-2----------2-2---------------0-2-0-----5-4-2-0-|x3|
A|-2-2-0-2-3-2--2-2-0-2-3/5--2-2-0-2-3-2--0-2-3------------------|--|
E|-0-0----------0-0----------0-0---------------------------------|--|

I love You Too...

e|------------------------------------------------------------|
B|------------------------------------------------------------|
G|------------------------------------------------------------|
D|---9--------------------------------------------------------|
A|---9--(Let Ring)--------------------------------------------|
E|---7-----------------------5--3--2--0-----------------------|

 Distortion        ^^^^^^^^^ Turn Off distortion here


Interlude        Claudio::::

e|----------------------------------------------------------------------|--|
B|----------------------------------------------------------------------|--|
G|--------7-------------7-------------7--------9-10-12-10-9---9---7-9-7-|--|
D|---9-10---9-10---9-10---9-10---9-10---9-10-7--------------7---7-------|x4|
A|-7-------------7------------7-----------------------------------------|--|
E|----------------------------------------------------------------------|--| 

This is at the end of the first time of the interlude   Travis::::::

e|------------------------|
B|--888888888-------------|
G|--777777777-------------|
D|------------------------|
A|------------------------|
E|------------------------|

Interlude Lead      This is the lead for 2,3 and 4th time of the interlude    

e|----10--10---12-10--10---8p7--10----10----12-10---8p7--10p7--12p7---10p7---
B|------88--88------88--88----8----88----88------88----8-----8------8------8-
G|---------------------------------------------------------------------------
D|---------------------------------------------------------------------------
A|---------------------------------------------------------------------------
E|---------------------------------------------------------------------------
        ..  ..      ..  ..         ..    ..      ..    

Interlude Lead Cont..

e|-----------------|
B|----6666666------|
G|----5555555------|
D|-----------------|
A|-----------------|
E|-----------------|


Will... Do The Children Really understand ( Clean w/ Reverb)      Claudio:::

e|----------------------------------|--|
B|----------------------------------|--|
G|-------------------------0--------|--|
D|-----5-5-3-2-0h2-------0---0------|x4|
A|---3-------------3---5-------5/7--|--|
E|-1-----------------3--------------|--|


In The Seventh Turning Hour..

e|--------------------------------------------------|
B|--------------------------------------------------|
G|--------------------------------------------------|
D|-7--------3--------7--------3---------------------|
A|-7-7h8-7--3-5-3-2--7-7h8-7--3--7-8-10~-7-5*-------|
E|-5--------1--------5--------1---------------8-7*~-|

BreakDown

e|------------3-0----------------------------0-|
B|----------------3-1--0h1p0------0h1p0------1-|
G|-10-12--9------------------2----------2----2-|
D|-10-12--9--------------------3----------3--2-|
A|-------------------------------------------0-|
E|---------------------------------------------|

Now Its the Basically A little intermission then second Time of the
beginning comes in and the lead comes on about where the first 13 rings

and Then Do the Pre Verse Twice Now

And Then Do the Chorus Pt:2 Do it Twice.. 4 Times Total


End On

e|------------------------------------------------------------|
B|------------------------------------------------------------|
G|------------------------------------------------------------|
D|--11~-------------------------------------------------------|
A|--11~-------------------------------------------------------|
E|--9~--------------------------------------------------------|
Comments