Coheed And Cambria - In Keeping Secrets Of Silent Earth 3 Chords & Tabs

 

In Keeping Secrets Of Silent Earth 3 Chords & Tabs

Coheed And Cambria Chords & Tabs

Version: 5 Type: Tab 0 ratings
1 star 2 stars 3 stars 4 stars 5 stars
comments

In Keeping Secrets Of Silent Earth 3 Tab

artist:coheed and cambria
title:in keeping secrets of silent earth3
tabbed by:Hal McMahon--------->halmcmahon@hotmail.com
standard tuning (eadgbe)


INTRO
e------------------------------------------------------------|
b------------------------------------------------------------|
g------------------------------------------------------------|
d-----6-6---6-6---6---/7-6---6-6---6-6---6---6h7/9-7-6p7-0---|
a---4-----4-----4---4----------------------------------------|
e--------------------------0-----0-----0---0-----------------|

e---------------------------------------------|
b---------------------------------------------|
g----------------------------------------4----|x2
d-----4-4---4-4---4---/6-4p0---2-2---2--------|
a---2-----2-----2---2--------0-----0---0------|
e---------------------------------------------|

SLOW PART OVER INTRO
e---------------------------------------------------------------------|
b---------------------------------------------------------------------|
g---9-8-6/8/9/11-13-11-9-8-9-8-6-8~-6-8-9-11~-13~---------------------|
d---------------------------------------------------------------------|
a---------------------------------------------------------------------|
e---------------------------------------------------------------------|

e----------------------------------|
b----------------------------------|
g---999-888-999-888-999-888-11-9-8-|x2
d---xxx-xxx-xxx-xxx-xxx-xxx-x--x-x-|
a---777-666-777-666-777-666-9--7-6-|
e----------------------------------|

e-------------------------------------|
b-------------------------------------|
g---------------------4---------------|
d---------1-2-4-6-4-2---2-1h2p1-------|
a---1h2/4-----------------------2-4---|
e-------------------------------------|
[ Tab from: http://www.guitartabs.cc/tabs/c/coheed_and_cambria/in_keeping_secrets_of_silent_earth_3_tab_ver_5.html ]
     [................pm.......................]
e-----7-----7-----7-----7-----4-----4-----4------|
b-------5-----5-----5-----5-----5-----5-----5----|
g---6-----6-----6-----6-----6-----6-----6-----6--|
d------------------------------------------------|
a------------------------------------------------|
e------------------------------------------------|

e-----------------------------------------|
b-----------------------------------------|
g----------------------------------8/9\8--|x8
d---11-11----6------9-9--9-9--7-7--x/x\x--|
a---11-11-6h7-7-6-7-9-9--9-9--7-7--6/7\6--|
e---9--9------------7-7--7-7--5-5---------|

e------------------------------------------------|
b------------------------------------------------|
g-----------------------6------------------------|x4
d---4-4--4-4--4-4--4-4--6-6-7--9-9-9-9-7-7-7-7---|
a---4-4--4-4--4-4--4-4--4-6-7--9-9-9-9-7-7-7-7---|
e---2-2--2-2--2-2--2-2----4-5--7-7-7-7-5-5-5-5---|

e------------------------------|
b------------------------------|
g----------13------------------|x2
d---11-----x------9-----7------|
a---11x24--11x24--9x24--7x24---|
e---9------0------7-----5------|

HEAVY DISTORTION
e-------------------------------------------|
b-------------------------------------------|
g-------------------------------------------| x3
d---2-2--2-------2-2--2-------2-2--2--------|(im working on the solo thing
a---2-2--2-2h3-2-2-2--2-2h3-5-2-2--2-2h3-2--|just pm E a few times.)
e---0-0--0-------0-0--0-------0-0--0--------|

CLEAN
e---------------------------------------------------------------------|
b---------------------------------------------------------------------|
g-----------------------------------------------------9-10-12-9-10p---|
d-----9-10-12-9-10----9-10-12-9-10----9-10-12-9-10--7-----------------|
a---7---------------7---------------7---------------------------------|
e---------------------------------------------------------------------|

e---------------------|
b---------------------|
g---------------------|x3
d---12-14-10-12-14-10-|
a---------------------|
e---------------------|

The rest is comming...
Comments