Coheed And Cambria - In Keeping Secrets Of Silent Earth 3 Chords & Tabs

 

In Keeping Secrets Of Silent Earth 3 Chords & Tabs

Coheed And Cambria Chords & Tabs

Version: 3 Type: Tab 0 ratings
1 star 2 stars 3 stars 4 stars 5 stars
comments

In Keeping Secrets Of Silent Earth 3 Tab

Band:  COHEED AND CAMBRIA
Song:  IN KEEPING SECRETS OF SILENT EARTH: 3
Album: IN KEEPING SECRETS OF SILENT EARTH: 3

Tabbed by: Natoma
Email: blinkeranthem82@hotmail.com
Tuning: Drop D

Intro pt. 1 (Lead Guitar) - x3
E-----------------------------------------------------------------------------------|
B-----------------------------------------------------------------------------------|
G------------------------------------------4----------------------------------------|
D---6-6---6-6---6-6-7-6------6-6---6---6-7---7-6-6-6h7------------------------------|
A-4-----4-----4---------7----------------------------------9-9---9-9---9-9-11-9-7p0-|
D--------------------------2-----2---2-----------------2/9-----9-----9--------------|

E----------------|
B----------------|
G----------------|
D-------------9--|
A-----7-7---7----|
D-2/7-----7------|

Intro pt. 2 (Lead Guitar)
E---------------------------------------------------------------------------------|
B---------------------------------------------------------------------------------|
G-9-9-9-8-8-8-9-9-9-8-8-8-9-9-9-8-8-8-11-9-8-(x2)--------------1-----4------------|
D--------------------------------------------------------1-2-4---4-2---2-1-2-1----|
A--------------------------------------------------1-2-4-----------------------2--|
D---------------------------------------------------------------------------------|

E-----7-----7-----7-----7-----4-----4-----4-----4----|
B----------------------------------------------------|
G-6-6---6-6---6-6---6-6---6-6---6-6---6-6---6-6------|
D----------------------------------------------------|
A----------------------------------------------------|
D----------------------------------------------------|
  . .   . .   . .   . .   . .   . .   . .   . .

Guitar 2
E------------------|
B------------------|
G------------------|
D--2-2-2-2-2-------|
A--2-2-2-2-2-------|
D--2-2-2-2-2-------|

Verse x8 (Lead Guitar)
E----------------------------|
B----------------------------|
G----------------------------|
D-----6----------------------|
A-4-7---7-6-6h7-------6h7p6--|
D----------------------------|

Guitar 2
E-----------------------------------------|
B-----------------------------------------|
G-66--------------------------------------|
D-66-----6----------99-999-77-777---------|
A-44-4-7---7-6-6h7--99-999-77-777---------|
D-------------------99-999-77-777---------|
  ..                .. ... .. ...


Pre-Chorus x4 (Lead and Guitar 2)
E----------------------------------------------------|
B----------------------------------------------------|
G----------------------------------------------------|
D-44-x44-44-x44-11---6---7---9---99999---------------|
A-44-x44-44-x44-11---6---7---9---99999---------------|
D-44-x44-44-x44-11---6---7---9---99999---------------|


Chorus x2 (Lead and Guitar 2)
E-----------------------------------------------------------------|
B-----------------------------------------------------------------|
G-----------------------------------------------------------------|
D-11-11-11-11-11-11-11-11-11-11-11-11-11-11-11-11-11-11-11-11-11--|
A-11-11-11-11-11-11-11-11-11-11-11-11-11-11-11-11-11-11-11-11-11--|
D-11-11-11-11-11-11-11-11-11-11-11-11-11-11-11-11-11-11-11-11-11--|

E---------------------------------------------------------------|
B---------------------------------------------------------------|
G---------------------------------------------------------------|
D-6666-6-6-6-6---6666-6-6-6-6---6666-6-6-6-6--------------------|
A-xxxx-x-x-x-x---xxxx-x-x-x-x---xxxx-x-x-x-x--------------------|
D-2222-2-2-2-2---2222-2-2-2-2---2222-2-2-2-2--------------------|
  ....           ....           ....

E---------------------------------------------------------------|
B---------------------------------------------------------------|
G---------------------------------------------------------------|
D-99999999999999999999999--77-7-7-7-7-7-7-7-7-7-----------------|
A-99999999999999999999999--77-7-7-7-7-7-7-7-7-7-----------------|
D-99999999999999999999999--77-7-7-7-7-7-7-7-7-7-----------------|
                           ^^   ^   ^   ^   ^

Verse x8
Pre-Chorus x4
Chorus x2

Post-Chorus (x3) BOTH [Guitar 2: hold last note on third time, let Lead come in]
E------------------------------------------------------------------------------|
B------------------------------------------------------------------------------|
G------------------------------------------------------------------------------|
D-22-----------22-----------22---------------0-2-5-0-5-4-2-0-------------------|
A-22-2h3p2-2B~-22-2h3p2-5B~-22-2h3p2-2B~---------------------3-2---------------|
D-22-----------22-----------22-----------2-5-----------------------------------|
[ Tab from: http://www.guitartabs.cc/tabs/c/coheed_and_cambria/in_keeping_secrets_of_silent_earth_3_tab_ver_3.html ]
Bridge pt. 1 x4 (Lead Guitar)
E------------------------------------------------------------------------------|
B-----------------------------------------------------8------------------------|
G--------7--------------7--------------7---------9-10---10-9---4-----4---------|
D---9-10---10-9----9-10---10-9----9-10---10-9--7-------------5---5-7---7p5-----|
A-7--------------7--------------7----------------------------------------------|
D------------------------------------------------------------------------------|

Guitar 2 x1
E------------------------------------------------------------------------------|
B------------------------------------------------------------8-8-8-8-8-8-------|
G------------------------------------------------------------7-7-7-7-7-7-------|
D------------------------------------------------------------------------------|
A------------------------------------------------------------------------------|
D------------------------------------------------------------------------------|

(Play this twice then the stanza below) All x3
E-------10-----12-----10-----10-----10------------------|
B-------------------------------------------------------|
G-------------------------------------------------------|
D-9-9-9----9-9----9-9----9-9----9-9----9-9--------------|
A-------------------------------------------------------|
D-------------------------------------------------------|
  . . .    . .    . .    . .    . .    . .

E------------------------------------------------------------------------------|
B-15p12p0-17p12p0-19p12p0-17p12p0----------------------------------------------|
G------------------------------------------------------------------------------|
D------------------------------------------------------------------------------|
A------------------------------------------------------------------------------|
D------------------------------------------------------------------------------|

Guitar 2 x1
E------------------------------------------------------------------------------|
B-8-8-8-8-8-8------------------------------------------------------------------|
G-7-7-7-7-7-7------------------------------------------------------------------|
D------------------------------------------------------------------------------|
A------------------------------------------------------------------------------|
D------------------------------------------------------------------------------|

Bridge pt. 2 (Lead and Guitar 2) x4
E----------------------------------------------------------|
B----------------------------------------------------------|
G------------------------------0---------------------------|
D-----3----5-3-2----2--------0-----------------------------|
A---3------------5----3----5-------------------------------|
D-3----------------------5--------p3-----------------------|

Bridge pt. 3 (Guitar 2) x2
E------------------------------------------------------------------------------|
B------------------------------------------------------------------------------|
G------------------------------------------------------------------------------|
D--/7--------------/3-----------------/7--------------/3-----------------------|
A--/7-----/8--7----/3-----/5--3-------/7-----/8--7----/3-----/5--3-------------|
D--/7--------------/3-----------------/7--------------/3-----------------------|

Lead Guitar x2
E------------------------------------------------------------------------------|
B------------------------------------------------------------------------------|
G------------------------------------------------------------------------------|
D--/7--------------/3-----------------/7--------------/3-----------------------|
A--/7-----/8--7----/3-----/5--3-------/7-----/8--7----/3-----/5--3-------------|
D--/7--------------/3-----------------/7--------------/3-----------------------|

E-----------------------------------------------------------------------------|
B-----------------------------------------------------------------------------|
G--9-10-12~---10-9-10-9~------------------------------------------------------|
D-----------------------------------------------------------------------------|
A-----------------------------------------------------------------------------|
D-----------------------------------------------------------------------------|

Bridge pt. 4 x1 (Lead and Guitar 2)
E𥥤𥥧p0-------------------------0------------------------------------------|
B𥹑1------3p10h1p0----0h1p0-----1------------------------------------------|
G𦌾2---------------2--------2----2------------------------------------------|
D𦌿2-----------------3--------32-------------------------------------------|
A------------------------------------------------------------------------------|
D------------------------------------------------------------------------------|

Intro pt. 1 (Lead Guitar) x1
Guitar 2 (play this palm muted when coming into Intro pt. 2)
E-----------------------|
B-----------------------|
G-----------------------|
D-22222222222-----------|
A-22222222222-----------|
D-22222222222-----------|

Intro pt. 2 x2
Chorus x2

End on:
E-----
B-----
G-----
D-7~--
A-7~--
D-7~--
Comments