Coheed And Cambria - In Keeping Secrets Of Silent Earth 3 Chords & Tabs

 

In Keeping Secrets Of Silent Earth 3 Chords & Tabs

Coheed And Cambria Chords & Tabs

Version: 3 Type: Bass Tab

In Keeping Secrets Of Silent Earth 3 Bass Tab

   
Song order
Guitar intros
Intro/outro X1
Verse       X8
Bridge      X4
Chorus      X2
Verse       X8
Bridge      X4
Chorus      X2
verse second ver. X1
 pt. 2      X3
 pt. 3      X4
 pt. 4      X1
Guitar brake
 pt. 5      X1
Intro/outro X2
Chorus      X

Intro

  |--0:20sec.  |--0:25sec  |--0:30sec |--0:35sec
G------------------------------------------------|
D------------------------------------------------|
A-4------------------------2----------0----------|
E--------------0---------------------------------|




Intro part#2

G------------------------------------------------|
D------------------------------------4-6-4---4-6-|
A4-4-4-4-4-4-4-4-4-4-4-4-4-4-4-4-4-4-------4-----|
E------------------------------------------------|
 

G------------------------------------------------|
D------------------------------------------------|
A------------------------------------0-2-0---0-2-|
E0---0-0-0-0-0---0-0-0-0-0---0-0-0-0-------0-----|


G------------------------------------4-2-1-2-1---|
D----------------------------------------------2-|
A2-2-2-2-2-2-2-2-2-2-2-2-2-2-2-2-2-2-------------|
E------------------------------------------------|


G------------------------------------------------|
D------------------------------------------------|
A0---0-0-0-0-0---0-0-0-0-0---0-0-0-0-0---0-0-0-0-|
E------------------------------------------------|


verse
G------------------------------------------------|
D----------6-------------------------------------|
A4-4---4-7---7---7---6-7-------------------------|
E------------------------7-7---7-7-7-5-5---5-5-5-|

bridge riff

G------------------------------------------------|
D------------------------------------------------|
A-------------------4-----0--2-2-2-2-2-2-2-2-2---|
E2-2--2-2--2-2--2-2----4-------------------------|
 

Bridge riff last part before chorus             
G------------------------------------------------|
D------------------------------------------------|
A------------------------------------------------|
E2-2--2-2--2-2--2-2-4-4-4-4-4-4-5-5-5-5-5-5------|
                         

chorus

G------------------------------------------------|
D------------------------------------4-6-4---4-6-|
A4-4-4-4-4-4-4-4-4-4-4-4-4-4-4-4-4-4-------4-----|
E------------------------------------------------|
 

G------------------------------------------------|
D------------------------------------------------|
A------------------------------------0-2-0---0-2-|
E0---0-0-0-0-0---0-0-0-0-0---0-0-0-0-------0-----|


G------------------------------------4-2-1-2-1---|
D----------------------------------------------2-|
A2-2-2-2-2-2-2-2-2-2-2-2-2-2-2-2-2-2-------------|
E------------------------------------------------|


G------------------------------------------------|
D------------------------------------------------|
A0---0-0-0-0-0---0-0-0-0-0---0-0-0-0-0---0-0-0-0-|
E------------------------------------------------|



verse
G------------------------------------------------|
D----------6-------------------------------------|
A4-4---4-7---7---7---6-7-------------------------|
E------------------------7-7---7-7-7-5-5---5-5-5-|

bridge riff

G------------------------------------------------|
D------------------------------------------------|
A-------------------4-----0--2-2-2-2-2-2-2-2-2---|
E2-2--2-2--2-2--2-2----4-------------------------|
 

Bridge riff last part before chorus             
G------------------------------------------------|
D------------------------------------------------|
A------------------------------------------------|
E2-2--2-2--2-2--2-2-4-4-4-4-4-4-5-5-5-5-5-5------|

chorus
[ Tab from: http://www.guitartabs.cc/tabs/c/coheed_and_cambria/in_keeping_secrets_of_silent_earth_3_btab_ver_3.html ]
G------------------------------------------------|
D------------------------------------4-6-4---4-6-|
A4-4-4-4-4-4-4-4-4-4-4-4-4-4-4-4-4-4-------4-----|
E------------------------------------------------|
 

G------------------------------------------------|
D------------------------------------------------|
A------------------------------------0-2-0---0-2-|
E0---0-0-0-0-0---0-0-0-0-0---0-0-0-0-------0-----|


G------------------------------------4-2-1-2-1---|
D----------------------------------------------2-|
A2-2-2-2-2-2-2-2-2-2-2-2-2-2-2-2-2-2-------------|
E------------------------------------------------|


G------------------------------------------------|
D------------------------------------------------|
A0---0-0-0-0-0---0-0-0-0-0---0-0-0-0-0---0-0-0-0-|
E------------------------------------------------|

Verse second version

G------------------------------------------------|
D------------------------------------------------|
A------------------------------------------------|
E0-0---------------------0-0---------------------|


G------------------------------------------------|
D-----------------------------2-5-2-5-4-2--------|
A--------2-3-7~---------0-0-3-------------5-3-2--|
E0-0---0-----------------------------------------|


G------------------------------------------------|
D------------------------------------------------|
A---------2-3-5~------------------2-3-6~---------|
E-0-0---0-----------------0-0---0----------------|


G-----------------------------------------------|
D-----------------------------2-5-2-5-4-2-------|
A--------2-3-7~---------0-0-3-------------5-3-2-|
E0-0---0----------------------------------------|


G-----------------------------------------------|
D-----------------------------------------------|
A--------2-3-5~----------------------6~---------|
E0-0---0-----------------0-0--------------------|


G-----------------------------------------------|
D----------------------------2-5-2-5-4-2--------|
A--------2-3-7~--------0-0-3-------------5-3-2~-|
E0-0---0----------------------------------------|

part. 1
G-----------------------------------------------|
D-----------------------------------------------|
A-----------------------------------------------|
E-5~----------3~----------2~---------0~~~-------|


part. 2
G------------------------14~--------------------|
D------------------------12~--------------------|
A-----------------------------------------------|
E-----------------------------------------------|



G-----------------------------------------------|
D-----------------------------------------------|
A-----------------------------------------------|
E8-8-8-8-8-8-7----------------------------------|



pt 3

G------------------------------------------------|
D------------------------------------------------|
A------------3-----------------------5-----------|
E1-----------------------3-----------------------|

pt 4

G|-----------------------------------------------|
D|-----------------------------------------------|
A|---------------------------3~--2~--------------|
E|-5~-----1~-----5~-----1~-----------------------|



G|------------------------------------------------|
D|------------------------------------------------|
A|0~~~--------------------------------------------|
E|------------------------------------------------|

G|------------------------------------------------|
D|------------------------------------------------|
A|------------------------------------------------|
E|-55555555555555555555555------------------------|

End
G|----|
D|----|
A|-4~~|
E|----|



end on
G---
D---
A4~~
E---