Coheed And Cambria - In Keeping Secrets Of Silent Earth 3 Chords & Tabs

 

In Keeping Secrets Of Silent Earth 3 Chords & Tabs

Coheed And Cambria Chords & Tabs

Version: 2 Type: Bass Tab 0 ratings
1 star 2 stars 3 stars 4 stars 5 stars
comments

In Keeping Secrets Of Silent Earth 3 Bass Tab

   
In Keeping Secrets of Silent Earth: 3
the time signature is 3/4
Standard tuning

this is one of my faveorite songs. so when i saw many incorrect
tabs for it i felt i had to create one more accurate.

intro/outro

G------------------------------------------------|
D------------------------------------4-6-4---4-6-|
A4-4-4-4-4-4-4-4-4-4-4-4-4-4-4-4-4-4-------4-----|
E------------------------------------------------|
 1 + 2 + 3 + 1 + 2 + 3 + 1 + 2 + 3 + 1 + 2 + 3 +

G------------------------------------------------|
D------------------------------------------------|
A------------------------------------0-2-0---0-2-|
E0---0-0-0-0-0---0-0-0-0-0---0-0-0-0-------0-----|
 1 + 2 + 3 + 1 + 2 + 3 + 1 + 2 + 3 + 1 + 2 + 3 +

G------------------------------------4-2-1-2-1---|
D----------------------------------------------2-|
A2-2-2-2-2-2-2-2-2-2-2-2-2-2-2-2-2-2-------------|
E------------------------------------------------|
 1 + 2 + 3 + 1 + 2 + 3 + 1 + 2 + 3 + 1 + 2 + 3 +

G------------------------------------------------|
D------------------------------------------------|
A0---0-0-0-0-0---0-0-0-0-0---0-0-0-0-0---0-0-0-0-|
E------------------------------------------------|
 1 + 2 + 3 + 1 + 2 + 3 + 1 + 2 + 3 + 1 + 2 + 3 +


verse
G------------------------------------------------|
D----------6-------------------------------------|
A4-4---4-7---7---7---6-7-------------------------|
E------------------------7-7---7-7-7-5-5---5-5-5-|
 1 + 2 + 3 + 1 + 2 + 3 + 1 + 2 + 3 + 1 + 2 + 3 +

bridge riff

G------------------------------------------------|
D------------------------------------------------|
A------------------------4-----------------------|
E2---2-2-2-0-2---2-2-2-0-----4---5---7---7-7-5-4-|
 1 + 2 + 3 + 1 + 2 + 3 + 1 + 2 + 3 + 1 + 2 + 3 +

last time              [                         ]
                        G------------------------|
                        D------------------------|
                        A------------------------|
                        E4-4-4-4-4-4-5-5-5-5-5-5-|
                         1 + 2 + 3 + 1 + 2 + 3 +

chorus

G-----------------------------------------------|
D-----------------------------------------------|
A4-4-4-4-4-4-4-4-4-4-4-4-4-4-4-4-4-4-4---5---7--|
E-----------------------------------------------|
 1 + 2 + 3 + 1 + 2 + 3 + 1 + 2 + 3 + 1 + 2 + 3 +

G------------------------------------------------|
D------------------------------------------------|
A------------------------------------------------|
E0---0-0-0-0-0---0-0-0-0-0---0-0-0-0-0---0-0-0-0-|
 1 + 2 + 3 + 1 + 2 + 3 + 1 + 2 + 3 + 1 + 2 + 3 +

G-----------------------------------------------|
D-----------------------------------------------|
A2-2-2-2-2-2-2-2-2-2-2-2-2-2-2-2-2-2-2-4-2------|
E------------------------------------------4----|
 1 + 2 + 3 + 1 + 2 + 3 + 1 + 2 + 3 + 1 + 2 + 3 +

G------------------------------------------------|
D------------------------------------------------|
A0---0-0-0-0-0---0-0-0-0-0---0-0-0-0-0---0-0-0-0-|
E------------------------------------------------|
 1 + 2 + 3 + 1 + 2 + 3 + 1 + 2 + 3 + 1 + 2 + 3 +

middle pt 1

G-----------------------------------------------|
D-----------------------------------------------|
A-----------------------------------------------|
E0-0---------------------0-0--------------------|
 1 + 2 + 3 + 1 + 2 + 3 + 1 + 2 + 3 + 1 + 2 + 3 +

G------------------------------------------------|
D------------------------------2-5-2-5-4-2-------|
A--------2-3-7~----------0-0-3-------------5-3-2-|
E0-0---0-----------------------------------------|
 1 + 2 + 3 + 1 + 2 + 3 + 1 + 2 + 3 + 1 + 2 + 3 +

G-----------------------------------------------|
D-----------------------------------------------|
A--------2-3-5~------------------2-3-6~---------|
E0-0---0-----------------0-0---0----------------|
 1 + 2 + 3 + 1 + 2 + 3 + 1 + 2 + 3 + 1 + 2 + 3 +

G------------------------------------------------|
D------------------------------2-5-2-5-4-2-------|
A--------2-3-7~----------0-0-3-------------5-3-2-|
E0-0---0-----------------------------------------|
 1 + 2 + 3 + 1 + 2 + 3 + 1 + 2 + 3 + 1 + 2 + 3 +

G-----------------------------------------------|
D-----------------------------------------------|
A--------2-3-5~----------------------6~---------|
E0-0---0-----------------0-0--------------------|
 1 + 2 + 3 + 1 + 2 + 3 + 1 + 2 + 3 + 1 + 2 + 3 +

G-------------------------------------------------|
D------------------------------2-5-2-5-4-2--------|
A--------2-3-7~----------0-0-3-------------5-3-2~-|
E0-0---0------------------------------------------|
 1 + 2 + 3 + 1 + 2 + 3 + 1 + 2 + 3 + 1 + 2 + 3 +

G-----------------------------------------------|
D-----------------------------------------------|
A-----------------------------------------------|
E------------5~----------3~----------2~---------|
 1 + 2 + 3 + 1 + 2 + 3 + 1 + 2 + 3 + 1 + 2 + 3 +
[ Tab from: http://www.guitartabs.cc/tabs/c/coheed_and_cambria/in_keeping_secrets_of_silent_earth_3_btab_ver_2.html ]
G-----------------------------------------------|
D-----------------------------------------------|
A-----------------------------------------------|
E0~~~-------------------------------------------|
 1 + 2 + 3 + 1 + 2 + 3 + 1 + 2 + 3 + 1 + 2 + 3 +

G------------------------14~--------------------|
D------------------------12~--------------------|
A-----------------------------------------------|
E-----------------------------------------------|
 1 + 2 + 3 + 1 + 2 + 3 + 1 + 2 + 3 + 1 + 2 + 3 +

G------------------------|
D------------------------|
A------------------------|
E8-8-8-8-8-8-7-----------|
 1 + 2 + 3 + 1 + 2 + 3 +

middle pt 2

G-----------------------------------------------|
D----16--17--19--16--17------16--17--19--17--16-|
A14----------------------14---------------------|
E-----------------------------------------------|
 1 + 2 + 3 + 1 + 2 + 3 + 1 + 2 + 3 + 1 + 2 + 3 +

G------------------------14~---------------------|
D------------------------12~---------------------|
A------------------------------------------------|
E0~----------------------------------------------|
 1 + 2 + 3 + 1 + 2 + 3 + 1 + 2 + 3 + 1 + 2 + 3 +


G------------------------|
D------------------------|
A------------------------|
E8-8-8-8-8-8-7-----------|
 1 + 2 + 3 + 1 + 2 + 3 +

middle pt 3

G------------------------------------------------|
D------------------------------------------------|
A------------3-----------------------5-----------|
E1-----------------------3-----------------------|
 1 + 2 + 3 + 1 + 2 + 3 + 1 + 2 + 3 + 1 + 2 + 3 +

middle pt 4

G------------------------------------------------|
D------------------------------------------------|
A0~~~--------------------------------------------|
E------------------------------------------------|
 1 + 2 + 3 + 1 + 2 + 3 + 1 + 2 + 3 + 1 + 2 + 3 +

G------------------------------------------------|
D------------------------------------------------|
A------------------------------------------------|
E1~~~--------------------------------------------|
 1 + 2 + 3 + 1 + 2 + 3 + 1 + 2 + 3 + 1 + 2 + 3 +

G------------------------------------------------|
D------------------------------------------------|
A0-------0-------0-------0-------0-------0-------|
E----0-------0-------0-------0-------0-------0---|
 1 + 2 + 3 + 1 + 2 + 3 + 1 + 2 + 3 + 1 + 2 + 3 +

G------------------------------------------------|
D------------------------------------------------|
A------------------------------------------------|
E1~~~--------------------------------------------|
 1 + 2 + 3 + 1 + 2 + 3 + 1 + 2 + 3 + 1 + 2 + 3 +

G------------------------------------------------|
D------------------------------------------------|
A0-----------0-----------0-----------0-----------|
E------0-----------0-----------0-----------0-----|
 1 + 2 + 3 + 1 + 2 + 3 + 1 + 2 + 3 + 1 + 2 + 3 +

G------------------------------------------------|
D------------------------------------------------|
A------------------------------------------------|
E1~~~--------------------0~~~--------------------|
 1 + 2 + 3 + 1 + 2 + 3 + 1 + 2 + 3 + 1 + 2 + 3 +

G------------------------------------------------|
D------------------------------------------------|
A0-----------0-----------0-----------0-----------|
E------0-----------0-----------0-----------0-----|
 1 + 2 + 3 + 1 + 2 + 3 + 1 + 2 + 3 + 1 + 2 + 3 +

G------------------------------------------------|
D------------------------------------------------|
A------------------------------------------------|
E1~~~--------------------0~~~--------------------|
 1 + 2 + 3 + 1 + 2 + 3 + 1 + 2 + 3 + 1 + 2 + 3 +

G------------------------------------------------|
D------------------------------------------------|
A0~~~--------------------------------------------|
E------------------------------------------------|
 1 + 2 + 3 + 1 + 2 + 3 + 1 + 2 + 3 + 1 + 2 + 3 +

G------------------------------------------------|
D------------------------------------------------|
A------------------------------------------------|
E------------------------------------------------|
 1 + 2 + 3 + 1 + 2 + 3 + 1 + 2 + 3 + 1 + 2 + 3 +

G------------------------------------------------|
D------------------------------------------------|
A0~~~--------------------------------------------|
E------------------------------------------------|
 1 + 2 + 3 + 1 + 2 + 3 + 1 + 2 + 3 + 1 + 2 + 3 +
middle pt. 5

G------------------------------------------------|
D------------------------------------------------|
A0-0-0-0-0-0-0-0-0-0-0-0-0-0-0-0-0-0-0-0-0-0-0-0-|
E------------------------------------------------|
 1 + 2 + 3 + 1 + 2 + 3 + 1 + 2 + 3 + 1 + 2 + 3 +

song order
guitar intros
intro/outro X1
verse       X8
bridge      X4
Chorus      X2
Verse       X8
bridge      X4
Chorus      X2
middle part
 pt. 1      X1
 pt. 2      X3
 pt. 3      X4
 pt. 4      X1
Guitar brake
 pt. 5      X1
intro/outro X2
Chorus      X2

end on
G---
D---
A4~~
E---

its a long song but just enjoy it!
Comments