Coheed And Cambria - Devil In Jersey City Chords & Tabs

 

Devil In Jersey City Chords & Tabs

Coheed And Cambria Chords & Tabs

Version: 1 Type: Tab 0 ratings
1 star 2 stars 3 stars 4 stars 5 stars
comments

Devil In Jersey City Tab

   
Verse
Claudio
Distortion
e|---------------------------------------------------|
B|---------------------------------------------------|
G|---------------------------------------------------|
D|9-99999999-----------------------5-555555555555555-|
A|9-99999999---12-12121212121212---5-555555555555555-|
E|7-77777777---10-10101010101010---3-333333333333333-|
pm  ........      . . . . . . .      ...............

Repeat 4x
(on the third time don't muffle the A[799xxx] and D[1012xxxx] power chords)

Travis
Distortion
e|------------------------------|-------10-------14-10----15-10----17-10----|
B|------------------------------|----------10----------10-------10-------10-|
G|------------------------------|-------------------------------------------|
D|------------------------------|-12-12-------12----------------------------|
A|9-9999999---12-12121212121212-|-------------------------------------------|
E|7-7777777---10-10101010101010-|-------------------------------------------|
pm  .......      . . . . . . .

Repeat 2x

e|------------------------------1414-1414-1414-1414-1212-1212-1414-1414-|
B|------------------------------1010-1010-1010-1010-1010-1010-1010-1010-|
G|------------------------------x-x--x-x--x-x--x-x--x-x--x-x--x-x--x-x--|
D|------------------------------1212-1212-1212-1212-1212-1212-1212-1212-|
A|9-9999999---12-12121212121212-----------------------------------------|
E|7-7777777---10-10101010101010-----------------------------------------|

Repeat 2x
(muffle the A and D power chords the last time)

Chorus
Claudio & Travis
Distortion
e|----------------------------------------|
B|----------------------------------------|
G|----------------------------------------|
D|----------------------------------------|
A|7-99-7/99-7/99-7/99-7-99-7/99-7/99-7/99-|
E|5-77-5/77-5/77-5/77-5-77-5/77-5/77-5/77-|

Claudio
Distortion
e|-------------------------------------------------------|
B|-------------------------------------------------------|
G|-------------------------------------------------------|
D|--0-7-5-4-------0-7-5-4-------0-7-5-4-------0-7-5-4----|
A|5---------7-5-5---------7-5-5---------7-5-5---------7-5|
E|3-------------3-------------3-------------3------------|

Travis
Clean
e|14~---12~---14~---15~-|
B|10~---10~---10~---10~-|
G|x-----x-----x-----x---|
D|12~---12~---12~---12~-|
A|----------------------|
E|----------------------|
[ Tab from: http://www.guitartabs.cc/tabs/c/coheed_and_cambria/devil_in_jersey_city_tab.html ]
Don't let them scare you...
Claudio
Clean
e|--------------------|
B|--------------------|
G|--------------------|
D|--------------------|
A|77777777---55555555-|
E|55555555---33333333-|
pm........   ........

Claudio
Distortion
e|-----------------------------------------|
B|-----------------------------------------|
G|-----------------------------------------|
D|-----------------------------------------|
A|99-99-99-99-77-77-77-77-5555555555555555-|
E|77-77-77-77-55-55-55-55-3333333333333333-|

Travis
Distortion
e|---------------------------------------------------------|
B|---------------------------------------------------------|
G|----------7-7-----------6-6-----------7-7-----------6-6/-|
D|0h7p5p4p0-7-7-0h7p5p4p0-7-7-0h7p5p4p0-7-7-0h7p5p4p0-7-7--|
A|---------------------------------------------------------|
E|---------------------------------------------------------|

Claudio & Travis
Distortion
e|-----------------|
B|-----------------|
G|-----------------|
D|-----------------|
A|5555555555555555-|
E|3333333333333333-|

Repeat

Repeat Everything
(Travis's lead parts in the verse are shuffled around.)

Breakdown
Travis
Clean
e|---------------------5-------5---|
B|---55555555-----3333---3---3---3-|
G|---66666666-----4444-----4-------|
D|---77777777-7/5-5555-------------| x6
A|0~-------------------------------|
E|---------------------------------|

CBomb
Clean
e|-----------------------------------------------------------------------|
B|-------------------------------------------------------------------7---|
G|---------------------------------------------------------6h7-6h7-9---7-|
D|0-7-5-4-0-2h4-0-0-00-2/777777777777\222222222/7777p0-0-0---------------| x2
A|-----------------------------------------------------------------------|
E|-----------------------------------------------------------------------|

Don't let them scare you...
e|------------|
B|------------|
G|------------|
D|------------|
A|5~~~---5~~~-|
E|7~~~---3~~~-|

Outro
Claudio
Distortion
e|---------------------------------------------------------------------------|
B|---------------------------------------------------------------------------|
G|-------------19-19--------------18-18------------19-19--------------18-18/-|
D|0h19p17p16p0-------0h19p17p16p0-------0h19p17p16-------0h19p17p16p0--------| x5
A|---------------------------------------------------------------------------|
E|---------------------------------------------------------------------------|

cont...
e|-----------------|
B|-----------------|
G|-----------------|
D|-----------------| x4
A|5555555555555555-|
E|3333333333333333-|

Travis plays the same thing as the post chorus riff.

Fin.
Comments