Coheed And Cambria - Cuts Marked In The March Of Men Chords & Tabs

 

Cuts Marked In The March Of Men Chords & Tabs

Coheed And Cambria Chords & Tabs

Version: 1 Type: Bass Tab 0 ratings
1 star 2 stars 3 stars 4 stars 5 stars
comments

Cuts Marked In The March Of Men Bass Tab

   
---------------------------------------------------------------------------
            CUTS MARKED IN THE MARCH OF MEN - Coheed and Cambria
---------------------------------------------------------------------------

Tabbed By : Tim
e-mail: Brainyboy790@optonline.net

Tuning: Drop D

Ok, the second in my series. This song was pretty tough to figure out, especially since it took me a 

while to realize it was in drop D and not standard tuning. But once I got that hammered out, it wasn't 

too hard after that. The only tough part is part 1 in the bridge. With that I present to you...
Cuts Marked in the March of Men

Verse 
G|--------------------|
D|--------------------|
A|--------------------|
E|-44--77--66--997762-|


Pre-chorus ("In your last hours stand")
G|-------------------------------|
D|-------------------------------|
A|--------------777-555555555555-|
E|-2h44-777-999------------------|


Chorus
G|------------------------------------------------------------------>
D|------------------------------------------------------------------>
A|-----------------------------------------------------555555555555->
E|-000000000000-999999999999-777777777777-555555555555-------------->

>----------------------------------------------------->
>----------------------------------------------------->
>----------------------------------------555555555555->
>-999999999999-777777777777-555555555555-------------->

>--------------------------------------------------------->
>--------------------------------------------------------->
>-----------------4h5p4-----------4h5p4------555555555555->
>-999999999999-777------777777-555-----555555------------->
[ Tab from: http://www.guitartabs.cc/tabs/c/coheed_and_cambria/cuts_marked_in_the_march_of_men_btab.html ]
>----------------------------------------|*Josh varies playing the 4h5p4
>----------------------------------------| on the A string between the 3rd
>----------------------------------------| time and the 2nd time of the
>-999999999999-777777777777-555555555555-| chorus

Verse

Pre-chorus

Chorus

Bridge Part 1
G|-----------------------------------|
D|-----------------------------2-----|
A|----------4-7-7----5-5---2-3---3---|
E|-9p7-7-7---------5-----5---------5-|

Part 2
G|----------------------------------------------------------->
D|----------------------------7----------------------------7->
A|------------------------5h7--------------------------5h7--->
E|-9p7-7-7-7-7-7-7-7-7-77-------99-77-44-77-77-77h9-77------->

>------------------------------------------------------>
>----------------------------7------------------------->
>------------------------5h7--------------------------->
>-99-77-44-77-77-77h9-77-------4-4-4-4-4-4-5-5-5-5-5-5->

>------------------------------|
>----------------------------7-|
>------------------------5h7---|
>-99-77-44-77-77-77h9-77-------|

Part 3 ("Deliver a favor to my love")
G|-------------------------------------------------|
D|-------------------------------------------------|
A|-------------------------------------------------|
E|-99-99-99-99-99-99-99-99-00-00-00-00-00-00-00-00-|

Pre-chorus

Chorus

And BAM! you're done. Have fun. I didn't write out how many times to play
each part but you'll be able to finish it out.

| /  slide up
| \  slide down
| h  hammer-on
| p  pull-off
| ~  vibrato
| +  harmonic
| x  Mute note
===============================================================================
Comments