Coheed And Cambria - Blood Red Summer Chords & Tabs

 

Blood Red Summer Chords & Tabs

Coheed And Cambria Chords & Tabs

Version: 2 Type: Bass Tab 0 ratings
1 star 2 stars 3 stars 4 stars 5 stars
comments

Blood Red Summer Bass Tab

   
----------------------------------------------------------------------------
			     BLOOD RED SUMMER - Coheed and Cambria
----------------------------------------------------------------------------

Tabbed By : Matt
e-mail:

Tuning: Standard (E-A-D-G)

Opening, Guitar only.

Verse:
G|--------------------------------------------------------------------------|
D|--------------------------------------------------------------------------|
A|-------7---------7-------------7----4----2--------------------------------|
E|-7h9-9---7--7--9---7---7-7h9-9---7----5---4--2-2-0-2-2-4-4-5-4-2--4-0-----|

Pre-Chorus:
G|--------------------------------------------------------------------------|
D|--------------------------------------------------------------------------|
A|-2h4p2-----------------------7-7-6-6-4-4-3-3------------------------------|
E|-----------4-5-----7-4----------------------------------------------------|

Chorus: (not exact but its as close as i could get)
G|---------------------------------------------------------------------------|
D|----6-7-6-4-2-4-6-2--------------------------------------------------------|
A|-----------------------2-2-4-4-6-6-7-7-9-9-11-11-12-12-14-14---------------|
E|-7-------------------------------------------------------------------------|
[ Tab from: http://www.guitartabs.cc/tabs/c/coheed_and_cambria/blood_red_summer_btab_ver_2.html ]
G|---------------------------------------------------------------------------|
D|---------------------------------------------------------------------------|
A|---------14-14-------14-14--------14---------------------------------------|
E|---12-12-------12-12--------12-12----0-0-0---------------------------------|

Bridge
G|--------------------------------------------------------------------------|
D|--------------------------------------------------------------------------|
A|-4-4-4-4-4-4-4-4-4-4-4-4-4-4-4-4-2-2-2-2-2-2-2-2-2-2-2-2-2-2-2-2-2--------|
E|--------------------------------------------------------------------------|

G|--------------------------------------------------------------------------|
D|--------------------------------------------------------------------------|
A|-0-0-0-0-0-0-0-0-0-0-0-0-0-0-0-0-0-0-0-0-0-0-0-0-0-0-0-0-0-0-0-0-0--------|
E|--------------------------------------------------------------------------|


SONG ORDER

opening - Guitar only
verse (0:06)
pre-chorus (0:44)
chorus(0:50)
verse(1:15)
chorus(1:52)
bridge(2:18)
interlude - same as verse (2:43)
pre chorus(3:08)
bridge (3:15)- end.

| /  slide up
| \  slide down
| h  hammer-on
| p  pull-off
| ~  vibrato
| +  harmonic
| x  Mute note

Enjoy.
============================================================================
Comments