Coheed And Cambria - Always And Never Chords & Tabs

 

Always And Never Chords & Tabs

Coheed And Cambria Chords & Tabs

Version: 2 Type: Tab 0 ratings
1 star 2 stars 3 stars 4 stars 5 stars
comments

Always And Never Tab

   
Title: Always and Never
Artist: Coheed & Cambria
Album: Good Apollo I'm Burning Star IV, Volume 1: From Fear Through
 The Eyes of Madness

Copyright  Columbia Records 2005
Verion 1.0 - 09/02/2005 - Original Tab

Tabbed by: Chris Frazier (cdf0103@mail.ecu.edu)

Time to start tabbing out this beast (Good Apollo...). I skipped Keeping
The Blade since it's not played on guitar but if I feel like it later, I
may piece it together for guitar. So, here's the first guitar track off
the album, it's the intro/ballad "Always and Never". My best suggestion
for this track is to keep your thumb on that low Db and any part done on
that string, pick it with your thumb and leave your other fingers for the
other five strings. Good luck!

If anybody has any question, comments, or corrections PLEASE send them to
me at cdf0103@mail.ecu.edu and you'll be sure to get FULL CREDIT for
anything you submit to me.

This tab is reserved for the following sites, they will be the only
ones to recieve updated version(s) as they become available. If you
retrieved this tab from another website, please visit one of the
websites below to be sure you have the most accurate version:

http://www.angelfire.com/goth/btab/
http://www.mxtabs.net
http://www.cobaltandcalcium.com
[ Tab from: http://www.guitartabs.cc/tabs/c/coheed_and_cambria/always_and_never_tab_ver_2.html ]
.  - palm mute
/  - slide up and down to
b  - Bend
() - Natural harmonics
*  - Pinch harmonics
h  - Hammer
p  - Pull off
\"  - Tremolo Picking
x  - Mute
... - keep playing last chord at steady pace

Guitar I; Acoustic, Rhythm (Left)(Db Ab Db Gb Bb Eb)

Phase I (Guitar I)
E|-------------------------------------------------------------------------------------||
B|-------------------------------------------------------------------------------------||
G|-------------2p0-------------------2p0-------------2-0---0--------------2-0----------||
D|---------0-------0-------------0-------0-----0h2h4-----4----------0h2h4-----4--------||
A|-------0---0-----------------0---0---------------------------------------------------||
D|-0h2h4-------------0---0h2h4-------------0---------------0-0--0---------------0-0--0-||

Phase II (Guitar I)
E|---------||----------||------------||---||
B|---------||----------||------------||---||
G|-4-------||-4-4-2--0-||-2--------2-||---|| Listen to how many times each part of this
D|---0-----||----------||---0--------||---|| phase is played each time it comes around.
A|-----0---||-----0----||-----0------||-0-||
D|-5-----5-||-5-5----5-||-0-----0--0-||-0-||

Phase III (Guitar I)
E|-7------7-5------5-3-----/8--5-----5---||
B|---------------------------------------||
G|---------------------------------------||
D|-------------------------------4-----4-||
A|---7--------5--------5-----------5-----||
D|-0---0--0-0---0--0-0---0--0--0---------||
Comments