Coheed And Cambria - A Favour House Atlantic Acoustic Chords & Tabs

 

A Favour House Atlantic Acoustic Chords & Tabs

Coheed And Cambria Chords & Tabs

Version: 1 Type: Tab 0 ratings
1 star 2 stars 3 stars 4 stars 5 stars
comments

A Favour House Atlantic Acoustic Tab

#----------------------------------PLEASE NOTE---------------------------------#
#This file is the author's own work and represents their interpretation of the #
#song. You may only use this file for private study, scholarship, or research. #
#------------------------------------------------------------------------------##




Artist/Song - A Favor House Atlantic, Coheed & Cambria
Tabber - Mash (UK, Birmingham)
Email - mashwilliams@hotmail.com

Standard Tuning - EADGBE
Guitar - Acoustic


This is an acoustic version of A Favor House Atlantic that Co&Ca play live, it's got
a totally different tone to it than the album version. 
To hear it go to http://www.cobaltandcalcium.com/ and donate if you can it's a great 

site.

---------------------------------------------------------------------------------------





Ok, play this song in a dolce style, which sort of means play it sweetly.



(INTRO)
  Gtr I
    \ / / \ /  \
|---0-0-0-0-0--0----------------|
|---0-0-0-0-0--0----------------|
|---6-6-6-6-6--6-4-6------------|
|---6-6-6-6-6--6-----4----------|
|-4-4-4-4-4-4--0-------7-6------|
|-0------------0-----------7----|

(Strum around those powerchords for a while you'll soon get a feel for the rhythm and 

alternate pick the single notes)

[ Tab from: http://www.guitartabs.cc/tabs/c/coheed_and_cambria/a_favour_house_atlantic_acoustic_tab.html ]
(INTRO)
  Gtr II
             ~
|-12-11----9----------------------------------------|
|-------12---9-----9-12p9-------------------9-------|
|-------------------------11p9----9----9-11---------|
|------------------------------11---11--------------|
|---------------------------------------------------|
|---------------------------------------------------|

(This is quite basic as Travis seems to play something different every time so just riff 

around this pattern)




(VERSE)
  Gtr I
|-0--0--0------0----|
|-0--0--0------5----|
|-2--4--6-(OR)-6----|
|-2--4--6------6----|
|----2--4------4----|
|-------------------|


(VERSE)
  Gtr II
|-12-11----9----------------------------------------|
|-------12---9-----9-12p9-------------------9-------|
|-------------------------11p9----9----9-11---------|
|------------------------------11---11--------------|
|---------------------------------------------------|
|---------------------------------------------------|

(Travis is usually messing around this solo thing again)


(Bridge)
  Gtr I
|-0-0----|
|-0-0----|
|-2-2----|
|-2-2----|
|-0-0----|
|--------| Let Ring...


The rest is not that disimilar to the regular version tab wise so your best looking at 

someone else's rather than me nicking their work.
Awesome have fun, bye bye.




 
     Legend
----------------
 h   - hammer-on
 p   - pull-off
 /   - Up Stroke
 \   - Down Stroke
 ~   - Vibrato
Comments