Coheed And Cambria - A Favor House Atlantic Chords & Tabs

 

A Favor House Atlantic Chords & Tabs

Coheed And Cambria Chords & Tabs

Version: 6 Type: Tab 0 ratings
1 star 2 stars 3 stars 4 stars 5 stars
comments

A Favor House Atlantic Tab

-------------------------------------------------------------------------------
			   A Favor House Atlantic
-------------------------------------------------------------------------------
Tabbed by:Coheedandnofx6 
AIM:warxall0thextime

Tuning:Standard
                    ::INTRO::
Claudio
e|--------------------------7-9-----------------------|
B|------------------------------7-5/4-----------------|
G|----------------------------------------------------|
D|---6-6-6-6-6-6-6-6-6~-------------------------------|
A|---4-4-4-4-4-4-4-4-0~-------------------------------|
E|----------------------------------------------------|
[ Tab from: http://www.guitartabs.cc/tabs/c/coheed_and_cambria/a_favor_house_atlantic_tab_ver_6.html ]
Travis
e|---12-11---11---------------------------------------|
B|---------12---12-12/14------------------------------|
G|-----------------------13-11-9*slight bend----------|
D|----------------------------------------------------|
A|----------------------------------------------------|
E|----------------------------------------------------|
                    ::VERSE::
Claudio
e|-----------------------------------------------------|
B|-----------------------------------------------------|
G|-----------------------------------------------------|
D|---2-(16x)--4-(8x)--6-(8x)---------------------------|
A|---0--------2-------4--------------------------------|
E|-----------------------------------------------------|
                   ::PRECHORUS::
Claudio
e|-------|-------------|-----------|-------------|
B|-------|-------------|-----------|-------------|
G|-------|-------------|-----------|-------------|
D|---2---|---2-(16x)---|---2-2-2---|---2-(16x)---|
A|---0---|---0---------|---0-0-0---|---0---------|
E|-------|-------------|-----------|-------------|
PM           .                         .
                 ::CHORUS::
e|---------------------------------------------|
B|---------------------------------------------|
G|---------------------------------------------|
D|---------2-2---4-4---2-2---------------------|
A|---2-2---0-0---2-2---0-0---------------------|
E|---0-0---------------------------------------|
                       ::AFTERCHORUS::
Claudio
e|-------------------------------------------------------|
B|-------------------------------------------------------|
G|-------------------------------------------------------|
D|---6-6-6-----------4-4-4-------------------------------|
A|---4-4-4---7-7-7---2-2-2---2-2-2-----------------------|
E|-----------5-5-5-----------0-0-0-----------------------|

Then...

Travis
e|---12-11---11---------------------------------------|
B|---------12---12-12/14------------------------------|
G|-----------------------13-11-9*slight bend----------|
D|----------------------------------------------------|
A|----------------------------------------------------|
E|----------------------------------------------------|
                        ::INTERLUDE::
                    "Bye Bye Beautiful..."
Claudio
e|------------------------------------------------------------------|
B|------------------------------------------------------------------|
G|------------------------------------------------------------------|
D|-------------2--(16x)------------2--(16x)-------------2--(32x)----|
A|---2--(16x)--0---------2--(16x)--0----------2--(16x)--0-----------|
E|---0-------------------0--------------------0---------------------|

Travis
e|---------------------------------------------|
B|---0-6-5-0-4-0-5-0--0-4-3-0-2-0-3-0----------|
G|---------------------------------------------|
D|---------------------------------------------|
A|---------------------------------------------|
E|---------------------------------------------|

e|----------------------------------------|
B|---9*---7*---9*------7------------------|
G|-------------------8---9-7-6------------|
D|----------------------------------------|
A|----------------------------------------|
E|----------------------------------------|
*Tremelo Picking

This Is A Very Fun Song To Play, Hope You Like The Tab...
PLEASE RATE
Comments