Coheed And Cambria - A Favor House Atlantic Chords & Tabs

 

A Favor House Atlantic Chords & Tabs

Coheed And Cambria Chords & Tabs

Version: 5 Type: Tab 0 ratings
1 star 2 stars 3 stars 4 stars 5 stars
comments

A Favor House Atlantic Tab

   
--------------------------------------------------------------------------
             A FAVOR HOUSE ATLANTIC - Coheed and Cambria
--------------------------------------------------------------------------

Tabbed by: joecool71
Email: mattconnellan@yahoo.com

Tuning: Standard

Here it is, the ninth in my Coheed series, and probably the band's most popular
song. A difficult tab to figure out, too, due to the multiple lead parts,
especially in the bridge. But it's a great song, so have fun!

Intro
e|---------------------|
B|---------------------|
G|----------4-6--------|
D|-666666-6-----4------|
A|-444444-0--------7-6-|
E|---------------------|

Intro/ fill lead
e|-12-11----11----------------------------|
B|-------12----12--14---------------------|
G|---------------------13--11-9---11---13-|
D|----------------------------------------|
A|----------------------------------------|
E|----------------------------------------|

Verse (chords)
e|----------|
B|----------|
G|----------|
D|-2---4--6-|
A|-0---2--4-|
E|----------|

Verse lead
e|---------------9-------------------7----------|
B|-10-9---12-9-----9---12-9---10\------7----9---|
G|------9------9-----9------9-----/8-----/9---9-|
D|----------------------------------------------|
A|----------------------------------------------|
E|----------------------------------------------|

Prechorus
e|----------------------------------|
B|----------------------------------|
G|----------------------------------|
D|----------------------------------|
A|-77777777777777777777777777777777-|
E|-55555555555555555555555555555555-|
    .............  ................
Chorus
e|----------------------|--|----------------------------------|
B|----------------------|--|----------------------------------|
G|----------------------|--|----------------------------------|
D|----------------------|X3|----------------------------------|
A|-2-2--7-7--11-11--9-9-|--|-77777777777777777777777777777777-|
E|-0-0--5-5--9--9---7-7-|--|-55555555555555555555555555555555-|
                             ................................
Chorus lead
e|------------------------|--|-4---------|
B|-9-9--10-10--12-12--7-7-|--|-5---5---5-|
G|-9-9--9--9---9--9---9-9-|--|-----6-----|
D|------------------------|X3|-----------|
A|------------------------|--|-----------|
E|------------------------|--|-----------|

Fill
e|----------------------------|
B|----------------------------|
G|----------------------------|
D|-6-6-6--6-6-6--4-4-4--2-2-2-|
A|-4-4-4--0-0-0--0-0-0--0-0-0-|
E|----------------------------|

Bridge (chords)
e|-------------------------|
B|-------------------------|
G|-------------------------|
D|-------------------------|
A|-2---7--7-2---7--9-4---7-|
E|-0---5--4-0---5--7-2---5-|

Bridge lead 1
e|-----------------------------------------------------|
B|-5---5---5---5---77777777777777775555555---5---5---5-|
G|-4---6---4---6---66666666666666666666666---4---6---6-|
D|-----------------------------------------------------|
A|-----------------------------------------------------|
E|-----------------------------------------------------|
[ Tab from: http://www.guitartabs.cc/tabs/c/coheed_and_cambria/a_favor_house_atlantic_tab_ver_5.html ]
Bridge lead 2
e|----------------------------------|--|---------------------------------------|-->
B|-0-9-10-0-7-9-0-5-7-0-4-5-0-5-7-0-|--|-9-0-10-0-12-0-14-0-12-0-10-0-9-0-10-0-|-->
G|----------------------------------|--|---------------------------------------|-->
D|----------------------------------|X4|---------------------------------------|X2>
A|----------------------------------|--|---------------------------------------|-->
E|----------------------------------|--|---------------------------------------|-->

e|-----------------------------------------------------------------|
B|-9-9-5-0-7-9-0-5-7-0-4-5-0-5-7-0-9-9-5-0-7-9-5---7-0-4-5-0-0-5-7-|
G|-----------------------------------------------6-----------------|
D|-----------------------------------------------------------------|
A|-----------------------------------------------------------------|
E|-----------------------------------------------------------------|

Bridge lead 3 (Each note in the first half of this lead is struck w/ tremolo picking)
e|------------------------------------------------------------------------>
B|-10--9--7--9-4-5-7-10--9--7--5-4-5-7-10--9--7--9-4-5-7-5--4--5--7-5-4-5->
G|------------------------------------------------------------------------>
D|------------------------------------------------------------------------>
A|------------------------------------------------------------------------>
E|------------------------------------------------------------------------>

e|---------------------------------------|--|---------------------------------|
B|-9-0-10-0-12-0-14-0-12-0-10-0-9-0-10-0-|--|-9-0-7-9-0-0-7-9-0-5-7-0-4-0-5-0-|
G|---------------------------------------|--|---------------------------------|
D|---------------------------------------|X2|---------------------------------|
A|---------------------------------------|--|---------------------------------|
E|---------------------------------------|--|---------------------------------|

Outro
e|-12-11------|
B|-------12---|
G|------------|
D|------------|
A|----------2-|
E|----------0-|

LYRICS AND RIFF PLACEMENT

[INTRO] X2
[INTRO W/ LEAD]
[VERSE] X2
Your eyes tell the stories of a day you wish you could
Recall the moments that once have
[VERSE W/ LEAD] X2
Retract the footsteps that brought us to this favor
I wouldn't ask this of you
[PRECHORUS]
Good eye sniper
I'll shoot you run
[CHORUS W/ LEAD]
The words you scribbled on the walls
The loss of friends, you didn't have
I'll call you when the time is right
Are you in or are you out
For them all to know the end of us all
[FILL] X2
[FILL W/ LEAD]
[VERSE]
Run quick they're behind us
Didn't think we'd ever make it
[VERSE W/ LEAD] X3
This close to safety in one piece
Now you want to kill me
In the act of what could maybe
Save us from sleep and what we are
[PRECHORUS]
Good eye sniper
I'll shoot you run
[CHORUS W/ LEAD]
The words you scribbled on the walls
The loss of friends, you didn't have
I'll call you when the time is right
Are you in or are you out
For them all to know the end of us all
[BRIDGE W/ LEAD 1]
Bye, bye beautiful
Don't bother to write
Disturbed by your words and they're calling all cars
Face step let down, face step... Step down
[CHORUS W/ LEAD]
The words you scribbled on the walls
The loss of friends, you didn't have
I'll call you when the time is right
Are you in or are you out
For them all to know
[BRIDGE W/ LEAD 2]
Bye, bye beautiful
Don't bother to write
Disturbed by your words and they're calling all cars
Face step let down, face step... Step down
[BRIDGE W/ LEAD 3]
Bye, bye beautiful
Don't bother to write
Disturbed by your words and they're calling all cars
Face step let down, face step... Step down
[OUTRO]

| /  slide up
| \  slide down
| h  hammer-on
| p  pull-off
| ~  vibrato
| +  harmonic
| x  Mute note
===============================================================================
Comments