Coheed And Cambria - A Favor House Atlantic Chords & Tabs

 

A Favor House Atlantic Chords & Tabs

Coheed And Cambria Chords & Tabs

Version: 1 Type: Tab 0 ratings
1 star 2 stars 3 stars 4 stars 5 stars
comments

A Favor House Atlantic Tab

   
ok this is the first time iv tabd nefin that iv put on the net. 
im 100% this is rite, well i no that the intro and outro are 100%
but the rest is very faint so im not too sure but i am workin on it!

e|-12-11----11----9----------|
B|-------12----12----9-------|
G|------------------------11-|
D|---------------------------|
A|---------------------------|
E|---------------------------|

e|-----------------------------------------------------------------|
B|-----------------------------------------------------------------|
G|-9~------------------------------11~-------------13~-------------|
D|-----------------------------------------------------------------|
A|-----------------------------------------------------------------|
E|-----------------------------------------------------------------|

rest a while

e|-----------|
B|-9/79/79-|
G|-----------|
D|ha-a-a-ave-|
A|-----------|
E|-----------|

e|-5p4p0-7p4p0-5p4p0-7p4p0-----777------121212/0-4p0-0-5p0-0-7p0-0-5p0-0-----777----12121212-12/-|
B|----------------------------7777----12121212------------------------------7777----12121212-12/-|
G|-------------------------8------9------------------------------------8------9--------------|
D|-----------------------------------------------------------------------------------------------|
A|-----------------------------------------------------------------------------------------------|
E|-----------------------------------------------------------------------------------------------|
[ Tab from: http://www.guitartabs.cc/tabs/c/coheed_and_cambria/a_favor_house_atlantic_tab.html ]
e|-12-12----12-12----12-12----12-12----| 3x
B|-12-12----12-12----12-12----12-12----|
G|--9--9-----9--9-----9--9-----9--9----|
D|-------------------------------------|
A|-------------------------------------|
E|-------------------------------------|

e|-4p0-0-5p0-0-7p0-0-5p0-0----7777-------------------|
B|----------------------------7777------9/79/79----| slide down from somewhere
G|-------------------------8------9--pe-e-e-e-eace-|
D|---------------------------------------------------|
A|---------------------------------------------------|
E|---------------------------------------------------|

e|-5p4p0-7p4p0-5p4p0-7p4p0-----777------121212/0-4p0-0-5p0-0-7p0-0-5p0-0-----777----12121212-12/-|
B|----------------------------7777----12121212------------------------------7777----12121212-12/-|
G|-------------------------8------9------------------------------------8------9--------------|
D|-----------------------------------------------------------------------------------------------|
A|-----------------------------------------------------------------------------------------------|
E|-----------------------------------------------------------------------------------------------|

First Part of Second Chorus:
e|-0-4-5-0-2-4---------------------|
B|-------------0-4-5-0-2-4-0-4-5-0-|
G|---------------------------------|
D|---------------------------------|
A|---------------------------------|
E|---------------------------------|

Outro:
e|-12-11------|
B|-------12---|
G|------------|
D|----------2-|
A|----------2-|
E|----------0-|


there you go. thats pretty much it. good luck, its a great song to 
play wiv mates!!!!
Comments