Coheed And Cambria - A Favor House Atlantic Chords & Tabs

 

A Favor House Atlantic Chords & Tabs

Coheed And Cambria Chords & Tabs

Version: 2 Type: Bass Tab 0 ratings
1 star 2 stars 3 stars 4 stars 5 stars
comments

A Favor House Atlantic Bass Tab

   
by:
coheed stifler a.k.a master bassist






 E E E E E E E E   E E E Q.   E E     E E E E E E E E   E E E E E E E E
||------------------|-----------------||-----------------|-----------------||
||o-----------------|----------------o||-----------------|-----------------||
||o-4-4-4-4-4-4-----|----------------o||-4-4-4-4-4-4-----|-----------6-7-0-||
||----------------5-|---7-9-7----5-0--||---------------5-|---7-9-7---------||


   Verse
    $
    E E E E E E E E   E E E E E E E E   E E E E E E E E   E E E E E E E E  4x
||------------------|-----------------|-----------------|------------------||
||o-----------------|-----------------|-----------------|-----------------o||
||o-----------------|-----------------|-----------------|-----------------o||
||--5-5-5-5-5-5-5-5-|-5-5-5-5-5-5-5-0-|-7-7-7-7-7-7-7-7-|-9-9-9-9-9-9-9-0--||


 Pre-Chorus
  E E E E E E E E   E E E E E E E E   E E E E E E E E   E E E E E E E E
|-----------------|-----------------|-----------------|------------------||
|-----------------|-----------------|-----------------|------------------||
|-----------------|-----------------|-----------------|------------------||
|-5-5-5-5-5-5-5-5-|-5-5-5-5-5-5-5-5-|-5-5-5-5-5-5-5-5-|-5-5-5-5-5-5-5-5--||


 Chorus
  E E Q  E E Q    E E Q  E E E E     E E Q  E E Q    E E Q  E E E E
|---------------|----------------||----------------|------------------||
|---------------|----------------||o---------------|-----------------o||
|---------------|------------7-6-||o-7-------------|------------7-6--o||
|-0-0----5-5----|-9-9----7-7-----||----0----5-5----|-9-9----7-7-------||

[ Tab from: http://www.guitartabs.cc/tabs/c/coheed_and_cambria/a_favor_house_atlantic_btab_ver_2.html ]
 Bridge
                                                               To Coda
  E E E E E E E E   E E E E E E E E   E E E E E E E E   E E E E E E E E
|-----------------|-----------------|-----------------|------------------||
|-----------------|-----------------|-----------------|------------------||
|-----------------|-----------------|-----------------|------------------||
|-5-5-5-5-5-5-5-5-|-5-5-5-5-5-5-5-5-|-5-5-5-5-5-5-5-5-|-5-5-5-5-5-7-9-5--||


 Pre-Verse
                                                            D.S. al Coda
  E E E E E E E E   E E E E E E E E     E E E E E E E E   E E E E E E E E
|-----------------|-----------------||------------------|-------------------||
|-----------------|-----------------||o-----------------|------------------o||
|-4-4-4-4---------|-----------6-7-6-||o---4-4-4---------|-----------6-7-6--o||
|-----------5---5-|---7-9-7---------||------------5---5-|---7-9-7-----------||


 Bridge
  &
  E E E E E E E E   E E E E E E E E   E E E E E E E E   E E E E E E E E
|-----------------|-----------------|-----------------|------------------|
|-----------------|-----------------|-----------------|------------------|
|-7-7-7-7-7-7-7-7-|-7-7-7-7-7-7-7---|-----------------|------------------|
|-----------------|---------------5-|-5-5-5-5-5-5-5-5-|-5-5-5-5-5-4-4-4--|


  E E E E E E E E   E E E E E E E E   E E E E E E E E   E E E E E E E E
|-----------------|-----------------|-----------------|------------------|
|-----------------|-----------------|-----------------|------------------|
|-----------------|-----------------|-----------------|------------------|
|-0-0-0-0-0-0-0-0-|-0-0-0-0-2-2-4-4-|-5-5-5-5-5-5-5-5-|-5-5-5-5-5-7-7-0--|


  E E E E E E E E   E E E E E E E E   E E E E E E E E   E E E E E E E E
|-----------------|-----------------|-----------------|------------------|
|-----------------|-----------------|-----------------|------------------|
|-----------------|-----------------|-----------------|------------------|
|-2-2-2-2-2-2-2-2-|-2-2-2-2-2-2-2-0-|-5-5-5-5-5-5-5-5-|-5-5-5-5-5-5-5-5--|

Comments