Coheed And Cambria - A Favor House Atlantic Chords & Tabs

 

A Favor House Atlantic Chords & Tabs

Coheed And Cambria Chords & Tabs

Version: 1 Type: Bass Tab 0 ratings
1 star 2 stars 3 stars 4 stars 5 stars
comments

A Favor House Atlantic Bass Tab

   
-----------------------------------------------------------------------------
                  Coheed And Cambria - A Favor House Atlantic
-----------------------------------------------------------------------------

Artist: Coheed And Cambria
Song Title: A Favor House Atlantic
Tabbed By: Zeroisgreatman
Email: Benzero@verizon.net
Tunning: (Standard E)EADG

Intro:
G|-----------------4-6-------|
D|---------------------4-----|
A|-4-4-4-4-4-4-4-0-------7-6-|
E|---------------------------|

Verse: "Your eyes tell the stories of a day you wish you could"
G|-----------------------------------------------------------|
D|-----------------------------------------------------------|
A|-0-0-0-0-0-0-0-0-0-0-0-0--2-2-2-2-2-2-2-2--4-4-4-4-4-4-4-4-|
E|-----------------------------------------------------------|

Pre-Chorus: "Good eye, sniper, I'll shoot, you run"
G|-------------------------------------------------|
D|-------------------------------------------------|
A|-0-0-0-0-0-0-0-0-0-0-0-0-0-0-0-0-0-0-0-0-0-0-0-0-|
E|-------------------------------------------------|

Chorus: "The words you scribbled on the walls"
G|--------------------|
D|--------------------|
A|------0-0--4-4--2-2-|
E|-0-0----------------|
[ Tab from: http://www.guitartabs.cc/tabs/c/coheed_and_cambria/a_favor_house_atlantic_btab.html ]
"Are you in?, or are you out?"
G|-------------------------------------------------|
D|-------------------------------------------------|
A|-0-0-0-0-0-0-0-0-0-0-0-0-0-0-0-0-0-0-0-0-0-0-0-0-|
E|-------------------------------------------------|

"All--oo-oo-oo--"
G|------------------------------------|
D|------------------------------------|
A|-4-4-4-4--2-2-2-2--0-0-0-0----------|
E|----------------------------0-0-0-0-|

Bridge: "Bye-bye beautiful, don't bother to write..."
G|--------------------------------------------------------|
D|--------------------------------------------------------|
A|--------------------------0-0-0-0-0-0-0-0-0-0-0-0-0-0-0-|
E|-0-0-0-0-0-0-0-0-0-0-0-0--------------------------------|

"Disturbed by your words and they're calling all..."
G|--------------------------------------------------|
D|--------------------------------------------------|
A|-4-4-4-4-4-4-4-4-4-4-4-4--0-0-0-0-0-0-0-0-0-0-0-0-|
E|--------------------------------------------------|

"Face step let down, Face step step down"
G|-----------------------------------|
D|-----------------------------------|
A|-0-0-0-0-0-0-0-0-0-0-0-0-0-0-0-0-0-|
E|-----------------------------------|

End:
G|----------|
D|----------|
A|-7-6------|
E|-----7-0~-|

=============================================================================
Comments