Coheed And Cambria - 3 3 Chords & Tabs

 

3 3 Chords & Tabs

Coheed And Cambria Chords & Tabs

Version: 2 Type: Tab 0 ratings
1 star 2 stars 3 stars 4 stars 5 stars
comments

3 3 Tab

   
-------------------------------------------------------------------------------
			     33 - Coheed and Cambria
-------------------------------------------------------------------------------

Tabbed by: joecool71
Email: mattconnellan@yahoo.com, mconne@lincoln.navy.mil 

Tuning: Standard

This is a fun song to play. Short for a Coheed track, though. Enjoy!

Intro/verse (for the verse, reverse the palm muting on the chords)
e|----------------------------------------------------|
B|----------------------------------------------------|
G|----------------------------------------------------|
D|-88-88-88-88-888-88-88-88-88-888-4---44444444444444-|
A|-88-88-88-88-888-88-88-88-88-888-4---44444444444444-|
E|-66-66-66-66-666-66-66-66-66-666-2---22222222222222-|
                                       ..............
Intro lead
e|------------------------------------------------------9--9--9--9--9--9-->
B|------------------------------------------------------11-11-11-11-11-11->
G|-------10-----10h11-10p8-----------------------10-----10-10-10-10-10-10->
D|-8-8-8----8-8------------11-8-11-11-8-11-8-8-8----8-8------------------->
A|------------------------------------------------------------------------>
E|------------------------------------------------------------------------>
   . . .    . .                            . . .    . .
e|-----------------------------|
B|-----------------------------|
G|-----6---6---6h8p6---6---6---|
D|-6-----6---6-----------6---6-|
A|-----------------------------|
E|-----------------------------|

Verse lead
e|--------------------------------------------|
B|--------------------------------------------|
G|-------10-----10h11-10p8--------------------|
D|-8-8-8----8-8------------11-8-11-11-8-11-X2-|
A|--------------------------------------------|
E|--------------------------------------------|
   . . .    . .
Chorus
e|-----------------------------------------------------------|
B|-----------------------------------------------------------|
G|-----------------------------------------------------------|
D|----6-6-4-3-----------------66-----------6-6-4-3-----------|
A|-/4-----------6666666-88-88-44-44-4-4-/4-----------666-8-4-|
E|------------4-4444444-66-66----22-2-2------------4-444-6-2-|
[ Tab from: http://www.guitartabs.cc/tabs/c/coheed_and_cambria/3_3_tab_ver_2.html ]
Chorus lead
e|---------------------------------|
B|-9-9-9-9-11-9----9-9----9-9----9-|
G|--------------10-----10-----10---|
D|---------------------------------|
A|---------------------------------|
E|---------------------------------|

End of chorus lead
e|--------------------------------------|
B|----------9----11p9----11p9----9----9-|
G|-10-10-10---10------10------10---10---|
D|--------------------------------------|
A|--------------------------------------|
E|--------------------------------------|
   .  .  .    .       .       .    .
Bridge
e|----------------------------------|
B|----------------------------------|
G|-666555---------------------------|
D|-6665556668888-3-4444444444444444-|
A|-4443336668888-3-4444444444444444-|
E|-------4446666-1-2222222222222222-|

Final lead (play while last chord of bridge is held)
e|-----------|
B|-6-x-x-6-6-|
G|-5-x-x-5-5-|
D|-3-x-x-3-3-|
A|-----------|
E|-----------|

LYRICS AND RIFF PLACEMENT

[INTRO W/ LEAD] X2
[VERSE W/ LEAD] X4
It's not what you have learned but what they said about you under your shirt
You know they never will
They'll make sense of what you gave them
And now it's all downhill from here
Well in case you break my fall we're bringing it home
Patrick short flip and outside boundary lines
[CHORUS W/ LEAD]
I'm running you down well nothing looks right from up here
Inside out I'm still unclear
[END OF CHORUS LEAD]
About the things you might have said
[VERSE W/ LEAD] X3
In pieces they stagger indebted rush me to the emergency room
Flat line equals frantic endeavor but I guess this will have to do now
Patrick short flip and outside boundary lines
[CHORUS W/ LEAD] X2
I'm running you down well nothing looks right from up here
Inside out I'm still unclear about the things you might have said
[BRIDGE] X4
Hold on to the things you favor most
Shirt right and let it run down
If my peace could find a way
[FINAL LEAD] X4
Let go by the youthful honesty
[CHORUS W/ LEAD] X3
I'm running you down well nothing looks right from up here
Inside out I'm still unclear about the things you might have said


| /  slide up
| \  slide down
| h  hammer-on
| p  pull-off
| ~  vibrato
| +  harmonic
| x  Mute note
===============================================================================
Comments