Coheed And Cambria - 3 3 Chords & Tabs

 

3 3 Chords & Tabs

Coheed And Cambria Chords & Tabs

Version: 1 Type: Tab 0 ratings
1 star 2 stars 3 stars 4 stars 5 stars
comments

3 3 Tab

Tuning: Standard


                           ::INTRO::
e|-----------------------------------------------------------------|
B|-----------------------------------------------------------------|
G|-----------------------------------------------------------------|
D|--3-3--3-3--3-3--3-3--3-3-3-3--3-3--3-3--3-3--3-3--3-3-3-3-------|
A|--1-1--1-1--1-1--1-1--1-1-1-1--1-1--1-1--1-1--1-1--1-1-1-1-------|
E|-----------------------------------------------------------------|

e|-----------------|
B|-----------------|
G|--6--------------|
D|--4-(16x)--------|
A|-----------------|
E|-----------------|

               ::VERSE::
e|-----------------------------------------|
B|---------6-----6h7p6---------------------|
G|-----------------------------------------|
D|-------------------------------8---------|
A|-----------------------------------------|
E|---6-6-6---6-6-------6-6-6-6-6-----------|
P.M. . . .   . .       . . . . . .

               ::VERSE::
e|------------------------------------|--------------|
B|---------6-----6h7p6----------------|--------------|
G|---------------------8-------6------|--------------|
D|-----------------------8-6-8---8----|----11--------|
A|------------------------------------|----8--(32x)--|
E|---6-6-6---6-6----------------------|--------------|
P.M. . . .   . .       . . . . . .
[ Tab from: http://www.guitartabs.cc/tabs/c/coheed_and_cambria/3_3_tab.html ]
                    ::Chorus::  
e|-------------------------------------------------------|
B|-------------------------------------------------------|
G|-------------------------------------------------------|
D|---6-6-6-6-6-------------3-3--3-3--6-6-----------------|
A|---4-4-4-4-4--6-6-6-6-6--1-1--1-1--4-4--4-4-4-4--------|
E|--------------4-4-4-4-4-----------------2-2-2-2--------|

e|------------------------------------|
B|------------------------------------|
G|------------------------------------|
D|---6-6-6-6-6-------------3----------|
A|---4-4-4-4-4--6-6-6-6-6--1--4~------|
E|--------------4-4-4-4-4-----2~------|

              ::POST CHORUS::
e|------------------------------------------|
B|---------11-9-------11-9--11-9--9-9-------|
G|------11---------11-----------------------|
D|---11---------11--------------------------|
A|------------------------------------------|
E|------------------------------------------|
P.M. .  .  .    .  .  . 

   "A Patrick, Shortflip And..."
e|-----------------------------------------------------------------|
B|-----------------------------------------------------------------|
G|-----------------------------------------------------------------|
D|---3-3--3-3--3-3--3-3--3-3-3-3--3-3--3-3--3-3--3-3--3-3-3-3------|
A|---1-1--1-1--1-1--1-1--1-1-1-1--1-1--1-1--1-1--1-1--1-1-1-1------|
E|-----------------------------------------------------------------|

 "Hold On To The Things You Favor Most..."
e|--------------------------------------------------------|
B|--------------------------------------------------------|
G|--------------------------------------------------------|
D|---6-6-6-6-6-6--------3-3-3-----------------------------|
A|---4-4-4-3-3-3--7-7-7-1-1-1--4~-4-4-4-4-4-4-4-4---------|
E|----------------5-5-5--------2~-2-2-2-2-2-2-2-2---------|



By:coheedandnofx6
Have Fun 
Please Rate
Comments