Code Of Ethics - Shake Me Chords & Tabs

 

Shake Me Chords & Tabs

Code Of Ethics Chords & Tabs

Version: 1 Type: Bass Tab 0 ratings
1 star 2 stars 3 stars 4 stars 5 stars
comments

Shake Me Bass Tab

"Shake Me"
by Code of Ethics
(c) 1996 Songs On The ForeFront (SESAC)
Toonman (bass4jesus@aol.com)

(NOTE:  This song is best played either slap bass or with a pick)

***INTRO***
D--2p0-2p0-2-|
A------------|
                               (4x)
A---------------------------------|
E-0---0-------0-3-6-6-6-5-5-5-3-3-|

***VERSE***                    (8x)
A---------------------------------|---------------------------------|
E-0---0-------0-3-6-6-6-5-5-5-3-3-|-5---5---5---3-5---3-5---5---5---|
[ Tab from: http://www.guitartabs.cc/tabs/c/code_of_ethics/shake_me_btab.html ]
                                                                 (2x)
A---------------------------------|---------------------------------|
E-6---6---6---4-6---4-6---6---6---|-0---0-------0-3-6-6-6-5-5-5-3-3-|

A---------------------------------|-1---1---1---1-/-13--13--13--13--|
E-5---5---5---3-5---3-5---5---5---|---------------------------------|

***CHORUS***                                           (4x)
D-5---7---------------------------------------------------|
A---------7---5---7-5-------------------------------------|
E-------------------------6-----------5-----------3-------|

(Repeat Verse)
(Repeat Chorus)
(Do not play during Bridge)
(Repeat Chorus, this time repeating 8x)

Comments