Code Name Clide - Not Available Chords & Tabs

 

Not Available Chords & Tabs

Code Name Clide Chords & Tabs

Version: 1 Type: Tab 0 ratings
1 star 2 stars 3 stars 4 stars 5 stars
comments

Not Available Tab

   
Code name:
Clide.
Cover band
(N/A)


The beat to this is fast about 200 in the tempo
it gos in order then repeats.


Intro:

E------------------------------------------------------------
B------------------------------------------------------------
G------------------------------------------------------------
D-----------------5--5---------------------------------------
A----5----5----5---5--5---5----5----5----3----3----3---------
E-3----3----3-----------3----3----3----3----3----3----3------X1
 
Chourus:
[ Tab from: http://www.guitartabs.cc/tabs/c/code_name_clide/not_available_tab.html ]
E------------------------------------------------------------
B------------------------------------------------------------
G------------------------------------------------------------
D------------------------------------------------------------
A-3-3-3-3-3-4-4-4-4-4-3-3-3-3-3-3-3-3-3-3-4-4-4-4-4----------
E-0-0-0-0-0-4-4-4-4-4-3-3-3-3-3-0-0-0-0-0-4-4-4-4-4-3-3-3-3-3X2

Solo:

E------------------------------------------------------------
B------------------------------------------------------------
G------------------------------------------------------------
D-----------------0-0-0-0-0-0-0-0----------------------------
A-3-3-3-3-4-4-4-4--------------------------------------------
E---------------------------------3-3-3-3-3-3-3-3------------X3
Comments