Code Name Clide - Kick Ass Chords & Tabs

 

Kick Ass Chords & Tabs

Code Name Clide Chords & Tabs

Version: 1 Type: Tab 0 ratings
1 star 2 stars 3 stars 4 stars 5 stars
comments

Kick Ass Tab

Guitar #1
                                                                               
E||-------------------------|-------------------------|-----------------------|
B||-------------------------|-------------------------|-----------------------|
G||-------------------------|-------------------------|-----------------------|
D||--------10--9------------|--------10--9------------|--------6--5-----------|
A||-----9---------10--------|-----9---------10--------|-----5--------6--------|
D||--9----------------------|--9----------------------|--5--------------------|


                                                                            
-----------------------|--------------------------||-----------------------|
-----------------------|--------------------------||-----------------------|
-----------------------|--------------------------||*----------------------|
--------6--5-----------|--5--5--5--5--6--5--5--6--||*----------------------|
-----5--------6--------|--5--5--5--5--6--5--5--6--||---5----5----5----5----|
--5--------------------|--5--5--5--5--5--5--5--6--||---5----5----5----5----|


                                                                     
----------------------|----------------------|----------------------|
----------------------|----------------------|----------------------|
----------------------|----------------------|----------------------|
----------------------|----------------------|----------------------|
--1/---6----6----6----|--6----6----1/---8----|--8----8----8----8----|
--1/---6----6----6----|--6----6----1/---8----|--8----8----8----8----|


                           2x                          
---------------------------||-------------------------|
---------------------------||-------------------------|
--------------------------*||--------10--9------------|
--------------------------*||-----9--10--9--10--------|
--10--7--9--6--8--5--5-----||--9--9---------10--------|
--10--7--9--6--8--5--5-----||--9----------------------|

[ Tab from: http://www.guitartabs.cc/tabs/c/code_name_clide/kick_ass_tab.html ]
                                                                          
-------------------------|-----------------------|-----------------------|
-------------------------|-----------------------|-----------------------|
--------10--9------------|--------6--5-----------|--------6--5-----------|
-----9--10--9--10--------|-----5--6--5--6--------|-----5--6--5--6--------|
--9--9---------10--------|--5--5--------6--------|--5--5--------6--------|
--9----------------------|--5--------------------|--5--------------------|


                                                                               
--------------------------|---------------------------|-----------------------|
--------------------------|---------------------------|-----------------------|
--------------------------|---------------------------|-----------------------|
--------------------------|---------------------------|-----------------------|
--5--5--5--5--5--6--6--6--|--6--6--8--8--8--8--8--10--|--7--9--6--8--5--------|
--5--5--5--5--5--6--6--6--|--6--6--8--8--8--8--8--10--|--7--9--6--8--5--------|


                                                                            
-------------------------|-------------------------|-----------------------|
-------------------------|-------------------------|-----------------------|
--------10--9------------|--------10--9------------|--------6--5-----------|
-----9---------10~-------|-----9---------10~-------|-----5--------6~-------|
--9----------------------|--9----------------------|--5--------------------|
-------------------------|-------------------------|-----------------------|


                                                                 
-----------------------|-------------------|-------------------||
-----------------------|-------------------|-------------------||
--------6--5-----------|-------------------|-------------------||
-----5--------6~-------|-------------------|--x----------------||
--5--------------------|--7----------------|--0----------------||
-----------------------|--7----------------|--0----------------||


Comments