Cocteau Twins - Calfskin Smack Chords & Tabs

 

Calfskin Smack Chords & Tabs

Cocteau Twins Chords & Tabs

Version: 1 Type: Tab 0 ratings
1 star 2 stars 3 stars 4 stars 5 stars
comments

Calfskin Smack Tab

   
Cocteau Twins - Calfskin Smack

From the album: Milk & Kisses 
Words/Music: Cocteau Twins
Tabs:    Marcus H. Pedersen
Added to UG By Mikhailo

Another great song from M&K



Verse Riff: (C - Cadd) Repeated several times

e -----------------------------------------------------------------------------------------------------
B --5-------5--------5-------5-----5------5---------3-------3------3------3------3----------3--5-------
G --5-------5--------5-------5-----5------5--------5-------5-------5------5------5------5----------5---
D -------5--------5-------5------5-----5--------5-------5--------5------5------5------5--------------5-
A -----------------------------------------------------------------------------------------------------
E -----------------------------------------------------------------------------------------------------

Chorus riff: (Gm - C) Repeated several times
[ Tab from: http://www.guitartabs.cc/tabs/c/cocteau_twins/calfskin_smack_tab.html ]
e ---------1------0-------------
B ----3-------3-----------------
G --------------------0--3------
D ------------------------------
A ------------------------------ 
E ------------------------------

Guitar solo: (With distortion, delay and lots of chorus) Played twice

e ---------------------------------------------------------------------------------------------
B ------8----------6-------5------------------------------------------------------13--------13-
G ----------9---------7------------------------------------12---------12--14--------14---------
D --------------------------------5------------12---14---------14------------------------------
A ---------------------------------------------------------------------------------------------
E ---------------------------------------------------------------------------------------------

The End.
__________________________________________________________________________
Added to UG By Mikhailo
Comments