Cocker Joe - Marjorine Chords & Tabs

 

Marjorine Chords & Tabs

Cocker Joe Chords & Tabs

Version: 1 Type: Bass Tab 0 ratings
1 star 2 stars 3 stars 4 stars 5 stars
comments

Marjorine Bass Tab

Joe Cocker - Marjorine (bass)

pretty song.

G|-5-5-5-5-5-5-5-5-5-5-5-5-5-5-5-5----
D|------------------------------------
A|------------------------------------
E|------------------------------------
   * * * *|* * * *|* * * *|* * * *

  let me know...
G|---------------------------------------
D|------------------------------2-------
A|-3---3---3---3---3---3---3---3-32-----
E|----3---3---3---3---3---3---3----024-
   * * * *|* * * *|* * * *|* * * *

  down by the sea...
G|--------------------------
D|--------------------------
A|-5-4---2-5-4---2----------
E|-----5-------5---024------
   * * * *|* * * *|* * * *
[ Tab from: http://www.guitartabs.cc/tabs/c/cocker_joe/marjorine_btab.html ]
  I want you back...
G|------------------------------------
D|-5---5---5---5--55--------5-5-5-5----
A|---------------5--5------5-5---5-----
E|-------------------4---4------------
   * * * *|* * * *|* * * *|* * * *

  each...
G|-----------------------------------
D|-3-3-3-3-2-----2-2-----2----3-3-3--
A|--3---3---3---2-2-2---2-2--3-3-3-3-
E|--------0--0-0-----0-0----1--------
   * * * *|* * * *|* * * *|* * * *

  and every...
G|--------------------------------------
D|-----3--32----222-2-2-2------3-3-3----
A|----3--3--2------2---2-2-2--3---3---0-
E|-1---------0-0----------0--1----------
   * * * *|* * * *|* * * *|* * * *

now you have all the ingredients except for:
G|-----2---2---2-------2---2---r------
D|---2-------2-------2---------------
A|-0---------------0------------------
E|------------------------------------
   *   *   *   * | *   *   *   *

submitted by dION (kantongerecht@hotmail.com)
Comments