Cock Sparrer - Tough Guys Chords & Tabs

 

Tough Guys Chords & Tabs

Cock Sparrer Chords & Tabs

Version: 1 Type: Tab 0 ratings
1 star 2 stars 3 stars 4 stars 5 stars
comments

Tough Guys Tab

Tuning Standard

Intro
e|-----------------------------|
B|-----------------------------|
G|----------1010---12----------|
D|--1010----1010---12----------|2X
A|--1010-----8-8---10----------|
E|---8-8-----------------------|

Intro and Verse
e|---------------------------------|
B|---------------------------------|
G|--------------------------10--12-|
D|--10----------------------10--12-|6X
A|--10----10-12-13-12-10-----8--10-|
E|---8--12--------------12---------|

Verse 2
e|-----------------------------|
B|-----------------------------|
G|--8---10---8---10---121212---|
D|--8---10---8---10---121212---|
A|--6----8---6----8---101010---|
E|-----------------------------|

Chorus
e|------------------------------------------------------------------------|
B|------------------------------------------------------------------------|
G|------------99999-------77777-1010101010--1212121212-------------121212-|
D|-1010101010-99999-77777-77777-1010101010--1212121212-1010101010--121212-|2X
A|-1010101010-77777-77777-55555--8-8-8-8-8--1010101010-1010101010--101010-|
E|--8-8-8-8-8-------55555-------------------------------8-8-8-8-8---------|

Verse
e|---------------------------------|
B|---------------------------------|
G|--------------------------10--12-|
D|--10----------------------10--12-|4X
A|--10----10-12-13-12-10-----8--10-|
E|---8--12--------------12---------|

Verse 2
e|-----------------------------|
B|-----------------------------|
G|--8---10---8---10---121212---|
D|--8---10---8---10---121212---|
A|--6----8---6----8---101010---|
E|-----------------------------|
[ Tab from: http://www.guitartabs.cc/tabs/c/cock_sparrer/tough_guys_tab.html ]
Chorus
e|------------------------------------------------------------------------|
B|------------------------------------------------------------------------|
G|------------99999-------77777-1010101010--1212121212-------------121212-|
D|-1010101010-99999-77777-77777-1010101010--1212121212-1010101010--121212-|2X
A|-1010101010-77777-77777-55555--8-8-8-8-8--1010101010-1010101010--101010-|
E|--8-8-8-8-8-------55555-------------------------------8-8-8-8-8---------|

Solo
e|---------------------------------------------|
B|---------------------------------------------|
G|---------8^-------------------5-7------7-9---|
D|-10-8-------10-8h10p8-------7--------9-------|4X
A|------10--------------10--8-------10---------|
E|---------------------------------------------|

Solo 2
e|----------------------------------------|
B|----------------------------------------|
G|--8-7h8p7---7--------7-8-7---7----8888--|
D|----------8---10--10-------8---10-------|
A|----------------------------------------|
E|----------------------------------------|

Verse
e|---------------------------------|
B|---------------------------------|
G|--------------------------10--12-|
D|--10----------------------10--12-|4X
A|--10----10-12-13-12-10-----8--10-|
E|---8--12--------------12---------|

Verse 2
e|-----------------------------|
B|-----------------------------|
G|--8---10---8---10---121212---|
D|--8---10---8---10---121212---|
A|--6----8---6----8---101010---|
E|-----------------------------|

Chorus and End
e|------------------------------------------------------------------------|
B|------------------------------------------------------------------------|
G|------------99999-------77777-1010101010--1212121212-------------121212-|
D|-1010101010-99999-77777-77777-1010101010--1212121212-1010101010--121212-|2X
A|-1010101010-77777-77777-55555--8-8-8-8-8--1010101010-1010101010--101010-|
E|--8-8-8-8-8-------55555-------------------------------8-8-8-8-8---------|


TAb By Paulo Marasca Filho 



Comments