Cock Sparrer - Argy Bargy Chords & Tabs

 

Argy Bargy Chords & Tabs

Cock Sparrer Chords & Tabs

Version: 1 Type: Tab

Argy Bargy Tab

"Argy Bargy" Cock Sparrer

this is a great song and I cant believe no one else has tabbed it yet, so here goes...

Intro
e|-----------------------------|
B|-----------------------------|
G|-----55-77-------------------|
D|--55-55-77-99-77-55-7--------|
A|--55-33-55-99-77-55-7--------|
E|--33-------77-55-33-5--------|
[ Tab from: http://www.guitartabs.cc/tabs/c/cock_sparrer/argy_bargy_tab.html ]
Verses - just the chord progression:
e|-----------------------------|
B|-----------------------------|
G|-----------------------------|
D|--5--7--9--5-----------------|
A|--5--7--9--5-----------------|
E|--3--5--7--3-----------------|

Chorus
e|-------------------------|
B|-------------------------|
G|----99----77-------------|
D|-99-99-77-77-555555------|
A|-99-77-77-55-555555------|
E|-77----55----333333------|

Solo's kinda like this, repeat it a few times:

e|-12p11p9-12p10p9-11p10p8-8-9b--|
B|-------------------------------|
G|-------------------------------|
D|-------------------------------|
A|-------------------------------|
E|-------------------------------|