Cobra Starship - I May Be Rude But Im The Truth Chords & Tabs

 

Cobra Starship Chords & Tabs

Version: 3 Type: Bass Tab 0 ratings
1 star 2 stars 3 stars 4 stars 5 stars
comments

I May Be Rude But Im The Truth Bass Tab

-------------------------------------------------------------------------------
			     COBRA STARSHIP - i may be rude but i'm the truth
-------------------------------------------------------------------------------

Tabbed By: Valerie L
e-mail: queefist@yahoo.com
Tuning: standard

intro
G|------------------------------------------|
D|--11-----------11--9---7---7--9---9---9---|
A|---------------------0---0--0---0---0---0-|
E|9----9/-979-99---9------------------------|

verse "they all compete for your love."
G|----------------------------------|
D|-----------11--9---7--7-9--9---9--|
A|-----------------0--0--0--0--0---0|
E|9-9-979-99---9--------------------|x3

pre-chorus "if you don't like what i say.."
G|-----------------------------------------------|
D|----------11--9---7------9--9--9---------------|
A|----------------0--0-0-------------------------|
E|9-9-979-99--9----------7--7--7--7-----9999999/-|

chorus "i never need your sympathy."
G|--------------------------------------------------------------------------------------|
D|--------------------------------------------------------------------------------------|
A|-----------------------------------------------------------------------------00000000-|
E|0000000000000000-4444444444444444-0000000000000000-4444444445555555-22222222----------|
[ Tab from: http://www.guitartabs.cc/tabs/c/cobra_starship/i_may_be_rude_but_im_the_truth_btab_ver_3.html ]
G|----------------------------------------------------|
D|----------------------------------------------------|
A|---------22222222----------22222222-4-4-4-4-4-4-4-4-|
E|00000000----------22222222--------------------------|

intro x1

verse "i'll let you watch me for now."
G|----------------------------------|
D|-----------11--9---7--7-9--9---9--|
A|-----------------0--0--0--0--0---0|
E|9-9-979-99---9--------------------|x3

pre-chorus "what you see is what you get baby.."
G|-----------------------------------------------|
D|----------11--9---7------9--9--9---------------|
A|----------------0--0-0-------------------------|
E|9-9-979-99--9----------7--7--7--7-----9999999/-|

chorus x1

bridge
G|-------------------|    |----------------|
D|-------------------|    |----------------|
A|0~---2~---4~-------|    |0~--2~--4-4-4-4-|
E|---------------0~--| x3 |----------------|

chorus "i never need your sympathy."
G|--------------------------------------------------------------------------------------|
D|--------------------------------------------------------------------------------------|
A|-----------------------------------------------------------------------------00000000-|
E|0000000000000000-4444444444444444-0000000000000000-4444444445555555-22222222----------|

G|---------------------------------------------------------------------|
D|---------------------------------------------------------------------|
A|---------22222222----------22222222---------22222222-4-4-4-4-4-4-4-4-|
E|00000000----------22222222---------22222222--------------------------|
Comments