Coal Chamber - Untrue Chords & Tabs

 

Untrue Chords & Tabs

Coal Chamber Chords & Tabs

Version: 1 Type: Tab 0 ratings
1 star 2 stars 3 stars 4 stars 5 stars
comments

Untrue Tab

   
T1: Jason Stepnoski, steppy666@aol.com, Coal Chamber, Untrue, September
99

S1: Tuning: B, E, A, D, G, B,
 
(Intro)
B:--------------------------
G:--------------------------
D:-------1--2----5-4-1--
A:--------------------------
E----------------------------       4X
B:----------------------------
 
(Chorus)
B:----------------------------
G:-----------------------------
D:-----------------------------
A:----2--3-------6--5--2
E:----2--3-------6--5--2                           Same Rythmn as Intro
B:----0--1-------4--3--0                                    8X
 
 
(Verse)
B:----------------------------------
G:----------------------------------
D:--1-2----5---2--1--------------
A:-----------------------------------
E:------------------------------------   8X
B:------------------------------------
 
Then end with
B:---------
G:--------
D:---------
A:----2---
E:----2----
B:----0---- 


 
 
  

i've been here
waiting anticipating
coping with tears
where have you been?
[ Tab from: http://www.guitartabs.cc/tabs/c/coal_chamber/untrue_tab.html ]
you've been untrue
i've seen it before and i see it again
you've been untrue
i've seen it before and i see it again
you've been untrue
i've seen it before and i see it again
you've been untrue
i've seen it before and i see it again

it's quite clear now
your phone rang all night
i waited here
waiting anticipating
coping with tears
where have you been?

you've been untrue
i've seen it before and i see it again
you've been untrue
i've seen it before and i see it again
you've been untrue
i've seen it before and i see it again
you've been untrue
i've seen it before and i see it again

you can't stop me
you know who i am
this justifies
now just what i am
you crucify
won't lay by my side
and now you'll need me
until i die

guess what i'm dead

you've been untrue
i've seen it before and i see it again
you've been untrue
i've seen it before and i see it again
you've been untrue
i've seen it before and i see it again
you've been untrue
i've seen it before and i see it again

you can't stop me
you know who i am
this justifies
now just what i am
you crucify
won't lay by my side
and now you'll need me
until i die

i'm dead
Comments