Coal Chamber - Untrue Chords & Tabs

 

Untrue Chords & Tabs

Coal Chamber Chords & Tabs

Version: 2 Type: Bass Tab 0 ratings
1 star 2 stars 3 stars 4 stars 5 stars
comments

Untrue Bass Tab

Artist : Coal Chamber 
Album  : Chamber music
Song   : Untrue 

Tabbed by : PERREAUX Nicolas .

*********************************************
*********************************************

* Normal tunning on a five strings bass .
* Slap all notes .


Intro / First riff :

G-------------------------------------
D-------------------------------------
A-------------------------------------
E-------------------------------------
B--5-5----8-8-8--8---0---4-4---3--3---


Second Riff :
[ Tab from: http://www.guitartabs.cc/tabs/c/coal_chamber/untrue_btab_ver_2.html ]
G-------------------------------------
D-------------------------------------
A-------------------------------------
E-------------------------------------
B--01--01--01--01--11-----------------


Third Riff :

G-------------------------------------
D-------------------------------------
A-------------------------------------
E--3--88--888--88--4-44--444--08------
B-------------------------------------

G-------------------------------------
D-------------------------------------
A-------------------------------------
E--3--33--333--33--3-33--333--08------
B-------------------------------------


Play in diz order :

Intro = First Riff
Riff 1
Riff 2
Riff 1
Riff 2
Riff 3
Riff 1 (one time)
Riff 2
Riff 3


For any comment and report about my fault(s) ,
please mail me at : Nwicked@aol.com
Comments