Coal Chamber - Unspoiled Chords & Tabs

 

Unspoiled Chords & Tabs

Coal Chamber Chords & Tabs

Version: 2 Type: Tab 0 ratings
1 star 2 stars 3 stars 4 stars 5 stars
comments

Unspoiled Tab

   
#----------------------------------PLEASE NOTE--------------------------------#
#This file is the author's own work and represents their interpretation of the#
#song. You may only use this file for private study, scholarship, or research.#
#-----------------------------------------------------------------------------#

Date: Mon, 11 May 1998 13:30:45 EDT
From: AmirOfDsrt 
Subject: c/coal_chamber/unspoiled.tab

this is Unspoiled by Coal Chamber

Coal Chamber - Unspoiled
Transcribed by: AmirOfDsrt@aol.com



Tuning: B E A D G B

INTRO:

B-----------------------------------
G-----------------------------------
D--9~~~------9~~~-------------------
A-------9~~~------------------------
E-----------------------------------
B-----------------------------------


Riff 1:
[ Tab from: http://www.guitartabs.cc/tabs/c/coal_chamber/unspoiled_tab_ver_2.html ]
B-------------------------------------
G-------------------------------------
D-------------------------------------
A-------------------------------------
E-------------------------------------
B-2p1p0----0---1------0h1h2-----------


Verse:

B------5-4---5-4----------------------
G-------------------------------------
D-------------------------------------
A-------------------------------------
E-------------------------------------
B--0----------------------------------


Chorus:

B-------------------------------------
G-------------------------------------
D--9~~~------9~~~---------------------
A-------9~~~--------------------------
E-------------------------------------
B-------------------------------------


End Of Chorus:


B--4-4-4-4-4-4------------------------
G--4-4-4-4-4-4------------------------
D--4-4-4-4-4-4------------------------
A-------------------------------------
E-------------------------------------
B-------------------------------------
Harm..........

Riff 1 Again, then go to chorus and at the end of
the chorus, play:


B--19-
G-----
D-----
A-----
E-----
B-----
Comments