Coal Chamber - Tylers Song Chords & Tabs

 

Tylers Song Chords & Tabs

Coal Chamber Chords & Tabs

Version: 2 Type: Tab 0 ratings
1 star 2 stars 3 stars 4 stars 5 stars
comments

Tylers Song Tab

   
GUITAR TABLATURE ONLINE

          URL: www.angelfire.com/bc/tablature
	EMAIL: tablature@canada.com

 ----------------------------------------------------------------------------------------------

	     SONG: Tyler\'s Song
	     BAND: Coal Chamber
	    ALBUM: Chamber Music
   TRANSCRIBED BY: Jeff Jacobson
	     DATE: Unknown

 ----------------------------------------------------------------------------------------------

	TUNING: standard tuning on a seven string guitar (B,E,a,D,G,B,E)

              
     INTRO/VERSE:
              
    E|-------------------------------| 
    B|-------------------------------|  
    G|-------------------------------|  
    D|-------------------------------|  
    A|-------------------------------|  
    E|--4\\3-3--3--3-3-3-3-3--3--3-3--|  
    B|--2\\1-1--1--1-1-1-1-1--1--1-1--|

     CHORUS:

     Guitar One

    E|------------------------------------------------------| 
    B|------------------------------------------------------|  
    G|------------------------------------------------------|  
    D|--10--10--10--10--8--8--8--8--7--7--7--7--7--7--7--7--|  
    A|---x---x---x---x--x--x--x--x--x--x--x--x--x--x--x--x--|  
    E|---8---8---8---8--6--6--6--6--5--5--5--5--5--5--5--5--|  
    B|------------------------------------------------------|

     Guitar Two
[ Tab from: http://www.guitartabs.cc/tabs/c/coal_chamber/tylers_song_tab_ver_2.html ]
    E|------------------------------------------------------------------| 
    B|--10--10--10--10--11--11--11--11--15--15--15--15--15--15--15--15--|  
    G|---x---x---x---x---x---x---x---x---x---x---x---x---x---x---x---x--|  
    D|---7---7---7---7---8---8---8---8--12--12--12--12--12--12--12--12--|  
    A|------------------------------------------------------------------|  
    E|------------------------------------------------------------------|  
    B|------------------------------------------------------------------|

     INTERLUDE: (w/ tremolo effect)

    E|-------------------------------------------------------------------------| 
    B|------19--------19--------19---------------------------------------------|  
    G|--16--------16--------16----------16--------16----18--19--16- let ring --|  
    D|------------------------------19--------19-------------------------------|  
    A|-------------------------------------------------------------------------|  
    E|-------------------------------------------------------------------------|  
    B|-------------------------------------------------------------------------|

     another guitar plays these chords in the background

    E|---------------------| 
    B|---------------------|  
    G|---------------------|  
    D|--9--------------10--|  
    A|--x-- and then ---x--|  
    E|--7---------------8--|  
    B|---------------------|


Comments