Coal Chamber - Tylers Song Chords & Tabs

 

Tylers Song Chords & Tabs

Coal Chamber Chords & Tabs

Version: 1 Type: Tab 0 ratings
1 star 2 stars 3 stars 4 stars 5 stars
comments

Tylers Song Tab

This Is My Favourite Coal Chamber song, Tylers Song. I Use a Zoom 505 Pedal with my secret settings. (Mainly Distortion, Compressor and Chorus)

Tab Writted By Dave

Any Questions? E-Mail me at : sean_olsen@yahoo.com

Riff 1
E---------------------------------------------------------------------------
B---------------------------------------------------------------------------
G---------------------------------------------------------------------------
D---------------------------------------------------------------------------
A---------------------------------------------------------------------------
D---2-1-0-0-0-0-0-0-0--1-1-0-0-0-0-0-0--0-1-1-0-0-0-0-0-0-0---

Riff 2
[ Tab from: http://www.guitartabs.cc/tabs/c/coal_chamber/tylers_song_tab.html ]
E-----------------------------------------------------------------------------
B-----------------------------------------------------------------------------
G-----------------------------------------------------------------------------
D-----------------------------------------------------------------------------
A-----5---9--3---0---6------------------------------------------------------
D-----5---9--3---0---6------------------------------------------------------

Riff 3 (Solo)

E------------------------------------------------------
B------------------------------------------------------
G------------------------------------------------------
D--------10-----10----10------9-----9----9---------
A-----9------9------9-------7-----7-----7-----------
D------------------------------------------------------

Well, That’s It. See Yall Latez
Comments