Coal Chamber - Sway Chords & Tabs

 

Sway Chords & Tabs

Coal Chamber Chords & Tabs

Version: 4 Type: Tab 0 ratings
1 star 2 stars 3 stars 4 stars 5 stars
comments

Sway Tab

   
        GUITAR TABLATURE ONLINE

          URL: www.angelfire.com/bc/tablature
	EMAIL: tablature@canada.com

 ----------------------------------------------------------------------------------------------

	     SONG: Sway
	     BAND: Coal Chamber
	    ALBUM: Coal Chamber
   TRANSCRIBED BY: Jordan (jordan@mobynet.com)
	     DATE: Unknown

 ----------------------------------------------------------------------------------------------

	TUNING: tune your guitar down 1.5 steps and then drop d (B,F#,B,E,G#,C#)

     INTRO:

     Play this three times

   C#|-------------------|
   G#|----3---3---3---3--|
    E|--6---6---6---6----|
    B|-------------------|
   F#|-------------------|
    B|-------------------|

     Then play this a whole bunch of times
[ Tab from: http://www.guitartabs.cc/tabs/c/coal_chamber/sway_tab_ver_4.html ]
   C#|------------------|
   G#|------------------|
    E|------------------|
    B|--1--0--1-1--1-2--|
   F#|--1--0--1-1--1-2--|
    B|--1--0--1-1--1-2--|

     VERSE: (palm muted)

   C#|-----------------------------|
   G#|-----------------------------|
    E|-----------------------------|
    B|-----------------------------|
   F#|-----------------------------|
    B|--0h1--0h1--0h1--0h1--2-1-0--|

     CHORUS: (where Dez goes "sway, so hypnotic")

   C#|-------------------|
   G#|-------------------|
    E|-------------------|
    B|--0--3--0--x--x-x--|
   F#|--0--3--0--x--x-x--|
    B|--0--3--0--x--x-x--|

     FILL: (after chorus)

   C#|---------------|
   G#|----3---3---3--|
    E|--6---6---6----|
    B|---------------|
   F#|---------------|
    B|---------------|

     OUTRO: (where Dez goes "come sway this way")

   C#|------------------|
   G#|------------------|
    E|------------------|
    B|--3--0--3-3--3-4--|
   F#|--3--0--3-3--3-4--|
    B|--3--0--3-3--3-4--|



Comments