Coal Chamber - Sway Chords & Tabs

 

Sway Chords & Tabs

Coal Chamber Chords & Tabs

Version: 2 Type: Tab 0 ratings
1 star 2 stars 3 stars 4 stars 5 stars
comments

Sway Tab

   
#----------------------------------PLEASE NOTE--------------------------------#
#This file is the author's own work and represents their interpretation of the#
#song. You may only use this file for private study, scholarship, or research.#
#-----------------------------------------------------------------------------#

Sway -- Coal Chamber
From: jordan@mobynet.com

If you have a seven string guitar then more power to you, but if you 
don't just drop your tuning to (B,E,A,D,G,B) to get that seven string sound. 
Use a pretty heavy distortion with this one. I use my BOSS Metal Zone. 
I only have a few parts to this song. The major ones anyway. You'll have
to figure out the rhythm for it. Have fun...

The intro goes something like this:
[ Tab from: http://www.guitartabs.cc/tabs/c/coal_chamber/sway_tab_ver_2.html ]
E-------------|-------------|	The roof, the roof, the roof is on fire. We
B--0-0-0-0-0--|-------------|   don't need no water let the mother fucker
G-3-3-3-3-3---|-------------|   burn. Burn mother fucker, burn.
D-------------|-------------|
A-------------|-------------|
E-------------|-3-2-3-3-3-4-|
B-------------|-1-0-1-1-1-2-|

Here's the second part:
Palm mute all of this.

E-----------------------|
B-----------------------|
G-----------------------|
D-----------------------|----->Keep doing that for a while.
A-----------------------|
E-----------------------|
B-0h1-0h1-0h1-0h1-2-1-0-|

Third part:

E------------|
B------------|
G------------|	Sway. So hypnotic. Sway. So hypnotic.
D------------|
A------------|
E-2-5-2-X-XX-|
B-0-3-0-X-XX-|

After that do this:

E--------|
B--0-0-0-|
G-3-3-3--|
D--------|
A--------|
E--------|
B--------|

The last part that I got:

E-------------|-------------|
B-------------|-------------|
G-------------|-------------|	Sway this way.
D-------------|-------------|
A-------------|-------------|
E-5-2-5-5-5-6-|-------------|
B-3-0-3-3-3-4-|-3-0-3-3-3-4-|


That's all I got for now. Just mess with it and figure out when you need to
do which riff. It's a pretty easy song once you get the feel for it. Feel
free to email me with any comments, etc. (jordan@mobynet.com)
Comments