Coal Chamber - Something Told Me Chords & Tabs

 

Something Told Me Chords & Tabs

Coal Chamber Chords & Tabs

Version: 2 Type: Tab 0 ratings
1 star 2 stars 3 stars 4 stars 5 stars
comments

Something Told Me Tab

 BAND COAL CHAMBER
 ALBUM dark days AND RESIDENT EVIL
 MUSIC something told me

---------------------------------------------------------- 
TAB BY M@RcEl0 F ViEiR@
BODEDOMAL@BOL.COM.BR
------------------------------------------------------------


DROP IN  A
IN GUITAR OF  7 STRINGS


riff 1 :

e------------------------
b------------------------
g------------------------
d------------------------
a-12-h-13--0-00--00-00---
e-12-h-13--0-00--00-00---
A-12-H-13--0-00--00-00---
         

FILL 1 :

e---------
b---------
g---------
d---------
A---5--3--
E---5--3--
A---5--3--

     
RIFF 2 :


E------------------------
B------------------------
G------------------------
D------------------------
A--22--22--22--22-3~~----
E--22--22--22--22-3~~----
A--22--22--22--22-3~~----
      

RIFF 3 :
[ Tab from: http://www.guitartabs.cc/tabs/c/coal_chamber/something_told_me_tab_ver_2.html ]
E----------------------
B----------------------
G----------------------
D----------------------
A--0-H-1----00--00-00--
E--0-H-1----00--00-00--
A--0-H-1----00--00-00--
         PM-----------

VERSE :

E-------------------------
B-------------------------
G-------------------------
D-------------------------
A-0-010-01-0-000-00--12 13
E-0-010-01-0-000-00--12 13
A-0-010-01-0-000-00--12 13
PM------------

FILL 2 :

E---------------------
B---------------------
G---------------------
D---------------------
A--0-1--0-1-----------
E--0-1--0-1-----------
A--0-1--0-1-----------


BRIDGE :

E-------------------------
B-------------------------
G-------------------------
D-------------------------
A-XX-XX-XX----------------
E-11-11-11----------------
A-11-11-11--01 01---------
XXXXXXXXXX--FLANGER



E--------------------------------------
B--------------------------------------
G--------------------------------------
D-XXXXXXXXXXXXXXXXXXXXXXXX-------------
A--101010-111111-131313-141414-17------
E----------------XXXXXXXXXXXXX-15-20-21
AXXXXXXXXXXXXXXXXXXXXXXXXXXXXX----20-21


END :

RIFF 2


E-------
B-------
G-------
D-------
A--22---
E--22---
A--22---
Comments