Coal Chamber - Something Told Me Chords & Tabs

 

Something Told Me Chords & Tabs

Coal Chamber Chords & Tabs

Version: 1 Type: Tab 0 ratings
1 star 2 stars 3 stars 4 stars 5 stars
comments

Something Told Me Tab

Artist: Coal Chamber
Song: Something Told Me
Album: Dark Days
Tuning: AEADGB


|-------------|-----|
|-------------|-----|
|-------------|-----|
|------000-00-|-6-5-|
|-5-6--000-00-|-6-5-|
|------000-00-|-6-5-|
	        ? ?
	        ^ will figure this out soon
[ Tab from: http://www.guitartabs.cc/tabs/c/coal_chamber/something_told_me_tab.html ]
|--------------------------------|
|--------------------------------|
|--------------------------------|
|--------00-00-00-00-00-00-00-00-|
|-5-4-5--00-00-00-00-00-00-00-00-|
|--------00-00-00-00-00-00-00-00-|


|---------|
|---------|
|---------|
|---------|
|-0-3xxxx-|
|-0-5xxxx-|
    ^ over the frets

|----------------|
|----------------|
|----------------|
|-33-33-33-34-34-|
|----------------|
|----------------|


not sure of this last part, too much distortion and too many words to figure it out
please send me an emil with your results.
Comments