Coal Chamber - Shock The Monkey Chords & Tabs

 

Shock The Monkey Chords & Tabs

Coal Chamber Chords & Tabs

Version: 4 Type: Tab 0 ratings
1 star 2 stars 3 stars 4 stars 5 stars
comments

Shock The Monkey Tab

PLEASE NOTE---------------------------------#
#This file is the author's own work and represents their interpretation of the #
#song. You may only use this file for private study, scholarship, or research. #
#------------------------------------------------------------------------------#

"Shock the monkey" by Coal Chamber.
Tabbed by Allen Pheby

I love this song so much that I have tabbed it for all you mad chamber fans like me!!
Here it is!!!! If there is any corrections to be done email then to me ninjaicp@hotmail.com. Anyway enough of me let's get on with it!!

The tuning is weird as you drop all the strings down a tone!! Or 2 frets in your case!
Drop C tuning!!! ONLY USES 6,5 AND 4 FOR THE VERSE CHORUS AND MID 8.
[ Tab from: http://www.guitartabs.cc/tabs/c/coal_chamber/shock_the_monkey_tab_ver_4.html ]
Verse:
   D---------------------------
   A---------------------------
   F---------------------------
   C--0----0---3----3---1---0---0
   G---0---0---3----3---1---0---0
   C---0---0---3----3---1---0---0

Chorus:
   D-------------------------
   A-------------------------
   F--------------------------
   C---0---0---0---0------
   G---0---0---0---0-------
   C---0---0---0---0-------

MID 8:
 
   D-------------------------
   A-------------------------
   F-------------------------
   C---0---1---0---1-------
   G---0---1---0---1-------
   C---0---1---0---1-------

OUTRO RIFF:  PLAYED ON THE 1st STRING!!

  d---0---3----5-------12

THEN YOU ALTERNATE THAT AND D CHORD TILL IT FADES OUT!!
ENJOY IT COS I HAVE!!!




Comments