Coal Chamber - Secret Song Chords & Tabs

 

Secret Song Chords & Tabs

Coal Chamber Chords & Tabs

Version: 1 Type: Tab 0 ratings
1 star 2 stars 3 stars 4 stars 5 stars
comments

Secret Song Tab

   
Coal Chamber - Secret Solo Song
Tabbed By: Jon mills
EMail: ToXic345x@yahoo.ca


Secret Solo Song by Coal Chamber
Guitarist: Meegs
Album: Coal Chamber
Dif.: 7
Tabbed by Twiggy5

NOTE: Tune to B (B E A D G B)
NOTE: Okay this is the solo that Meegs plays after Pig…. After all that talking. 
So here goes
NOTE: * = strum 8x

Intro
E|--------------------|-2--------|
B|-0----0------------|-0----0---|

Solo
D|---12-----14-14--12-14^-^-^-^-^--14^-(14)p12-----------------------
A|---12-----14-14------------------------------14--14----14--14--12--
Keep bending up full steps ^            ^ bend up full step then bring back down to 
                                                      bracketed 14

Solo (cont.)
D|-------------------------12--14--12--14^----14^-----14^-14^---
A|-14~~~~~~~(14)\-----/14---------------------------------------
                                                       ^--½-step-^   ^ full step

Solo (cont.)
G|-------------15-----------------15-
D|--14^--^-------(14)----12-14^------
        ^ ½ step and hold up ^ ½ step and pik 15
          Till bracketed 14
           Also pik 15
[ Tab from: http://www.guitartabs.cc/tabs/c/coal_chamber/secret_song_tab.html ]
Solo (cont.)
B|----------------------------15-15--15-15--15-15-15*-
G|-15^----15--15--15-15-15-15-15-15--15-15--15-15-15*-
D|-14^----14--14--14-14-14-14-14-14--14-14--14-14-14*-
     ^ bend up ½ step and hold bend and pik all these notes

Solo (cont.)                      \/ hold bend till first bracketed 14
B|-12--15-15--12------------------15--------------------------------
G|-12-----------12--14--12--14^-----14--(14)--14--14^-(14)p12-------
D|-12------------------------------------------------------------14p12--
                                          ^ ½ step            ^ ½ step and bring back down

Solo (cont.)
G|--14^-(14)p12-----14----14-14----14^-(14)p12-------14^-(14)p12-----
D|-----------------14----------------------------14--------------14--
      -^ ½ step and bring back down---^-----------------^

Solo (cont.)
G|----12-----------------------------
D|----------14^--(14)~~~~~~~~~~~~~~~-
                       ^ hold bend till here ^

Solo (cont.)
G|----------12---------12-------12--------12--------12-14--14---
D|-12-13-14-----14-13-----14-13-----14-14-----14-13-------------

Solo (cont.)
G|-14^--14-14--14-14-14--14-14--14--14---14--12-12-----------------------|
D|------------------------------------------------------12--------------------|
A|------------------------------------------------------------------12-13-14-|
        1/2 ^ hold bend till-------------------^

Structure: -
Intro
Solo

Alright… That was fun to tab. I hope you enjoy it. It’s really fun to play also.
If you have any comments, corrections or suggestions email me at ToXic345x@yahoo.ca
Comments