Coal Chamber - Row Boat Chords & Tabs

 

Row Boat Chords & Tabs

Coal Chamber Chords & Tabs

Version: 4 Type: Tab 0 ratings
1 star 2 stars 3 stars 4 stars 5 stars
comments

Row Boat Tab

Row Boat and easy song to play in drop c tuning
PatrikAlberts@msn.com

INtro:
5--6--3--1---5--6--3--1---5--6--3--1-----------------------------
-----------------------------------------------------------------
-----------------------------------------------------------------
---------------------------------------1-2--1-2--1-2--1-2------
---------------------------------------1-2--1-2--1-2--1-2------
---------------------------------------1-2--1-2--1-2--1-2-------


Verse:8x
[ Tab from: http://www.guitartabs.cc/tabs/c/coal_chamber/row_boat_tab_ver_4.html ]
---------------------------------------
----------------------------------------
---------------------------------------
-1-2--1-2--1-2--1-2--1-2--1-2--1-2--1-2
-1-2--1-2--1-2--1-2--1-2--1-2--1-2--1-2
-1-2--1-2--1-2--1-2--1-2--1-2--1-2--1-2

Chorus: after the 1-2 hit the 3 fret with finger
---------------------------------------
---------------------------------------
---------------------------------------
-1-2--1-2--1-2--1-2--1-2--1-2--1-2--1-2
-1-2--1-2--1-2--1-2--1-2--1-2--1-2--1-2
-1-2--1-2--1-2--1-2--1-2--1-2--1-2--1-2


Extended Chorus at the end

------------------------------------
------------------------------------
------------------------------------
111-222--5555--7--9--7-----------
111-222--5555--7--9--7-----------
111-222--5555--7--9--7-----------

Comments