Coal Chamber - Oddity Chords & Tabs

 

Oddity Chords & Tabs

Coal Chamber Chords & Tabs

Version: 4 Type: Tab 0 ratings
1 star 2 stars 3 stars 4 stars 5 stars
comments

Oddity Tab

   
        GUITAR TABLATURE ONLINE

          URL: www.angelfire.com/bc/tablature
	EMAIL: tablature@canada.com

 ----------------------------------------------------------------------------------------------

	     SONG: Oddity
	     BAND: Coal Chamber
	    ALBUM: Coal Chamber
   TRANSCRIBED BY: Unknown
	     DATE: Unknown

 ----------------------------------------------------------------------------------------------

	TUNING: tune your guitar down 1 full step and then drop d (C,G,C,F,A,d)


     (A) INTRO/CHORUS: (palm muted in some spots)

    D|----------------------------|
    A|----------------------------|
    F|----------------------------|
    C|--0-0-0--1-1--0-0--1--0--1--|
    G|--0-0-0--1-1--0-0--1--0--1--|
    C|--0-0-0--1-1--0-0--1--0--1--|
[ Tab from: http://www.guitartabs.cc/tabs/c/coal_chamber/oddity_tab_ver_4.html ]
     (B) VERSE:

    D|----------|
    A|----------|
    F|----------|
    C|--0----0--|
    G|--0----0--|
    C|--0----0--|

     (C) FILL 1:

    D|-------------------|
    A|-------------------|
    F|-------------------|
    C|--4-4-5-5-4-5-4-5--|
    G|--2-2-3-3-2-3-2-3--|
    C|-------------------|

     (d) INTERLUDE:

    D|---------------------|
    A|---------------------|
    F|---------------------|
    C|---------------------|
    G|--2-2-3/5-3-3-3/5-2--|
    C|---------------------|

     (E) FILL 2:

    D|----------------|
    A|----------------|
    F|----------------|
    C|--/6-5-0-2-3-0--|
    G|--/6-5-0-2-3-0--|
    C|--/6-5-0-2-3-0--|


	RIFF ORDER

	A x 4 
	A x 7
	B x 6 
	A x 7 
	B x 6 
	A x 7 
	C x 8
	break
	D x 3
	F x 4
	A x ? (till the ending)
	


Comments