Coal Chamber - Oddity Chords & Tabs

 

Oddity Chords & Tabs

Coal Chamber Chords & Tabs

Version: 2 Type: Tab 0 ratings
1 star 2 stars 3 stars 4 stars 5 stars
comments

Oddity Tab

   
Coal Chamber - Oddity
Tuning - (A,E,A,D,G,B)

Intro:

 P.M.....(slighty let
off).............................
A|--------------------------|---------------------------|
E|--------------------------|---------------------------|
A|-3-3--3-4--3-3--3-4--3--4-|-3-3--3-4--3-3--3-4--3--4--|

  ..........................
A|--------------------------|-----------|
E|--------------------------|-3----%----|
A|-3-3--3-4--3-3--3-4--3--4-|-3---------|

 Intro/Chorus:

A|--------------------------|
E|-3-3--3-4-----------------| repeat a lot
A|-3-3--3-4--3-3--3-4--3--4-|

 Verses:

  P.M.     P.M.               P.M.................
A|-----------------|        A|---------------------------|
E|-3-3--%--3-3--%--| 3 1/2x E|---------------------------|
A|-3-3-----3-3-----|        A|-3-3--3-4--3-3--3-4--3--4--|

  "Keep this high, keep this high said i better"
D|--------------------------------|
A|---------4----------4-------4---|
E|--------------------------------|
A|-3-3--3-----3-3--3-----3--------|
[ Tab from: http://www.guitartabs.cc/tabs/c/coal_chamber/oddity_tab_ver_2.html ]
 After 2nd Chorus
D|---------------------------------|
A|---------4--------%--------------|
E|---------------------0--1--1--1--|
A|-3-3--3-----3-3------0--1--1--1--|

 "This is the way it's got to be (it's got to be)
A|------------------------|
E|-0----3--0--%--3--0--3--|
A|-0----3--0-----3--0--3--|

 Breakdown:

B|--------4-(let ring)----------|
G|--------x---------------------|
D|--------1---------------------|
A|------------------------------|
E|------------------------------|
A|-0----------------------------|

 *For the next part you need to mute strum the 1rst
and
2nd strings BEHIND the nut in the rhythm Meegs does*

 Interlude: w/wah and slight flanger effect

B|----------------|-----------------|
G|------14--------|------14---------|
D|-------x--------|-------x---------|
A|------12--------|------12---------|
E|----------------|-----------------|
A|-0----------3---|-1----------3----|

 The KICK ASS RIFF!!!
A|---------------------|---------------------|
E|-/6--5-0----2--3--0--|-/6--5-0----2--3--0--|
A|-/6--5-0----2--3--0--|-/6--5-0----2--3--0--|



Comments