Coal Chamber - Not Living Chords & Tabs

 

Not Living Chords & Tabs

Coal Chamber Chords & Tabs

Version: 1 Type: Tab 0 ratings
1 star 2 stars 3 stars 4 stars 5 stars
comments

Not Living Tab

   
WWW.METALTABS.COM

          URL: www.metaltabs.com
	EMAIL: webmaster@metaltabs.com

 ----------------------------------------------------------------------------------------------

	     SONG: Not Living
	     BAND: Coal Chamber
	    ALBUM: Chamber Music
   TRANSCRIBED BY: Josh Brown (joshbrown311@hotmail.com)
	     DATE: Unknown

 ----------------------------------------------------------------------------------------------

	TUNING: tune your guitar down as follows (A,E,A,D,G,B)


     () = palm mute


     RIFF 1:

    |------------------------------------------------|
    |-7--6--7--6--7--6--7--6--7--6--7--6--7--6--7--6-|
    |------------------------------------------------|
    |------------------------------------------------|
    |------------------------------------------------|
    |------------------------------------------------|

     RIFF 2:

    |---------------------------------------------------------|
    |---------------------------------------------------------|
    |---------------------------------------------------------|
    |-4--5-5-5--4-4-4--5-5-5--4-4-4--5-5-5--4-4-4--5-5-5--4-4-|
    |-4--5-5-5--4-4-4--5-5-5--4-4-4--5-5-5--4-4-4--5-5-5--4-4-|
    |-4--5-5-5--4-4-4--5-5-5--4-4-4--5-5-5--4-4-4--5-5-5--4-4-|

     RIFF 3:
[ Tab from: http://www.guitartabs.cc/tabs/c/coal_chamber/not_living_tab.html ]
    |-------------------------------|
    |-------------------------------|
    |-4---5---4---5---4---5---4---5-|
    |-------------------------------|
    |-------------------------------|
    |-------------------------------|

     RIFF 4:

    |-------------------------------------------------------------|
    |-------------------------------------------------------------|
    |-(4-4-4-4-4-4-4-4-4-4-4-4-5-4-4-4-4-4-4-5-4-4-5-4-4-5-4-5-5)-|
    |-------------------------------------------------------------|
    |-------------------------------------------------------------|
    |-------------------------------------------------------------|

     RIFF 5:

    |--------------------------|
    |--------------------------|
    |--------------------------|
    |-4-3-3--4-3-3--4-3-3--3-4-|
    |-4-3-3--4-3-3--4-3-3--3-4-|
    |-4-3-3--4-3-3--4-3-3--3-4-|

     RIFF 6:

    |---------------|
    |---------------|
    |---------------|
    |-4-4-4-3-3-3-2-|
    |-4-4-4-3-3-3-2-|
    |-4-4-4-3-3-3-2-|

     RIFF 7:

    |-------------------------------------------------------------|
    |-----------------------------------------------7-7-7-7-7-7-7-|
    |-(4-4-4-4-4-4-4-4-4-4-4-4-5-4-4-4-4-4-4-5-4-4)-7-7-7-7-7-7-7-|
    |-----------------------------------------------5-5-5-5-5-5-5-|
    |-------------------------------------------------------------|
    |-------------------------------------------------------------|

Comments