Coal Chamber - Not Living Chords & Tabs

 

Not Living Chords & Tabs

Coal Chamber Chords & Tabs

Version: 2 Type: Bass Tab 0 ratings
1 star 2 stars 3 stars 4 stars 5 stars
comments

Not Living Bass Tab

 
 Not living
 by coal chamber


D |--------------------------:||--------------------------|
A |--------------------------:||--------------------------|
E |-3-22-2-33-222---------:||-3-22-3-223-------------|
B |--------------------------:||--------------------------|

D |-----------------------------|
A |-----------------------------|
E |-2/7-------------------------|
B |-----56--6-6-5-6-----------|
[ Tab from: http://www.guitartabs.cc/tabs/c/coal_chamber/not_living_btab_ver_2.html ]
"How could it be..."
D |--------------------------:||--------------------------|
A |--------------------------:||--------------------------|
E |-3-22-2-33-222---------:||-3-22-3-223-------------|
B |--------------------------:||--------------------------|

"My lifes alone, without you.."
D |-----------------------------|
A |-----------------------------|
E |-2/7-------------------------|
B |-----56----------------------|

D |-----------------------------|
A |-----------------------------|
E |-2/7-------------------------|
B |-----56--6-6-5-6-----------|


 
Comments