Coal Chamber - My Frustration Chords & Tabs

 

My Frustration Chords & Tabs

Coal Chamber Chords & Tabs

Version: 1 Type: Tab 0 ratings
1 star 2 stars 3 stars 4 stars 5 stars
comments

My Frustration Tab

   
Tuning (B,E,A,D,G,B)

   intro

     P.M..............             P.M.............
   A|----------------------|    A|----------------------|
   E|-4--4--5--4--4--5--%--| 4x E|-3--3--4--3--3--4-%---| 4x
   B|-2--2--3--2--2--3-----|    B|-1--1--2--1--1--2-----|

   verses
     P.M..............            P.M..............
   A|----------------------|    A|----------------------|
   E|-------------------%--| 4x E|-4--4--5--4--4--5--%--| 4x
   B|-2--2--3--2--2--3-----|    B|-2--2--3--2--2--3-----|

     P.M..............................        P.M..............................
   A|---------------------------------|     A|---------------------------------|
   E|-----%-----%-----%-----%---------| 4x  E|-4-4-%-4-4-%-4-4-%-4-4-%-5-5-5---| 4x
   B|-2-2---2-2---2-2---2-2---3-3-3-0-|     B|-2-2---2-2---2-2---2-2---3-3-3-0-|

   chorus
[ Tab from: http://www.guitartabs.cc/tabs/c/coal_chamber/my_frustration_tab.html ]
   B|---------------------2-----|------------------------|
   G|---------------------------|------------------------|
   D|---------------------------|------------------------|  4x
   A|-----------------%---------|------------------------|
   E|-4--4--4--5--4-------------|-4--4--4--/7----7--5----|
   B|-2--2--2--3--2-------------|-2--2--2--/5----5--3----|

   end of 2nd chorus

     let ring.................................................
   B|-----------------------------0---------------------------|
   G|---------------------------------------------------------|
   D|---------------------------------------------------------|
   A|---------------0------------------------------0----------|
   E|----4----------4-----------------------------------------|
   B|----2----------------------------------------------------|

   bridge

     P.M..........................................
   A|-----------------------|-----------------------|
   E|-2---------------------|-----------------------| 4x
   B|------4--3----0--3--2--|-0----3--2----0--2--1--|

   interlude
                                                            P.M..
   A|-4---------------------|-----------------------|     A|----------|
   E|-2----6--5-------5--4--|------5--4-------4--3--| 4x  E|-2--2--%--| 4x
   B|------4--3----0--3--2--|-0----3--2----0--2--1--|     B|-0--0-----|

 and that kiddiez is pretty mush the whole song!!!! HAVE FUN PLAYING IT!!!!!!



Comments