Coal Chamber - My Frustration Chords & Tabs

 

My Frustration Chords & Tabs

Coal Chamber Chords & Tabs

Version: 2 Type: Bass Tab 0 ratings
1 star 2 stars 3 stars 4 stars 5 stars
comments

My Frustration Bass Tab

My Frustration - Coal Chamber
tabbed by: ryan b

Tune down to C#

***rest - "Where was I when..." (0:00 - 0:16)***

Riff A: (4 times)
A-------------------
C#--2-2--3--2-2--3--

Riff B: (4 times)
A-------------------
C#--1-1--2--1-1--2--

Riff A: (4 times)
Riff B: (4 times)

Riff C: (once)
A-----------------------------------
C#--2-2---2-2---2-2---2-2--3-3-3-0--

Riff D: (once)
A-----------------------------------
C#--2-2---2-2---2-2---2-2--3-3-3----
[ Tab from: http://www.guitartabs.cc/tabs/c/coal_chamber/my_frustration_btab_ver_2.html ]
Riff C: (once)
Riff D: (once)

Riff E: (4 times)
A--------------------------
C#--2--2-3-----2--2-5-5-3--

Riff A: (4 times)
Riff B: (4 times)
Riff C: (once)
Riff D: (once)
Riff C: (once)
Riff D: (once)
Riff E: (4 times)

Riff F: (15 times)
A---------------------------
C#--7-32--0-32--0-32--0-32--

Riff G: (once)
A---------------------------
C#--7-32--0-32-00-00-00-00--

Riff A: (4 times)
Riff B: (4 times)
Riff C: (once)
Riff D: (once)
Riff C: (once)
Riff D: (once)
Riff E: (8 times)
Riff A: (once)

Comments