Coal Chamber - Loco Chords & Tabs

 

Loco Chords & Tabs

Coal Chamber Chords & Tabs

Version: 5 Type: Tab 0 ratings
1 star 2 stars 3 stars 4 stars 5 stars
comments

Loco Tab

   
song: Loco
artist: Coal Chamber


intro:

--0-0-0-0----0----0----0--0-----------------------------------
----------5~---5~---5~--5--5--4-4-4-4-5~-4-5~-4-5~--4-5-4-5---
--------------------------------------------------------------  4x
--------------------------------------------------------------
--------------------------------------------------------------
--------------------------------------------------------------


riff A
-----------------|----------------------|----------------------|
-----------------|----------------------|----------------------|
-----------------|----------------------|------------------3-2-|
--0--------------|--0-2-0-2-0-2-0-2-3-2-|--0-2-0-2-0-2-0-2-3-2-| 8x
--0--------------|--0-2-0-2-0-2-0-2-3-2-|--0-2-0-2-0-2-0-2-3-2-|
--0--------------|--0-2-0-2-0-2-0-2-3-2-|--0-2-0-2-0-2-0-2-----|


riff B
----------------------------------------------
----------------------------------------------
----------------------------------------------  4x
----------------------------------------------
----------------------------------------3-2---
--0h2-0h2-0h2-0h2-3-2---0h2-0h2-0h2-0h2-------


riff C
-------------|
-------------|
-------------|
--2--2---222-|  4x
--2--2---222-|
--2--2---222-|
      loco,

-------------|
-------------|
-------------|
--1--1---111-|  4x
--1--1---111-|
--1--1---111-|
      loco,


riff A
-----------------|----------------------|----------------------|
-----------------|----------------------|----------------------|
-----------------|----------------------|------------------3-2-|
--0--------------|--0-2-0-2-0-2-0-2-3-2-|--0-2-0-2-0-2-0-2-3-2-| 8x
--0--------------|--0-2-0-2-0-2-0-2-3-2-|--0-2-0-2-0-2-0-2-3-2-|
--0--------------|--0-2-0-2-0-2-0-2-3-2-|--0-2-0-2-0-2-0-2-----|


riff B
----------------------------------------------
----------------------------------------------
----------------------------------------------  4x
----------------------------------------------
----------------------------------------3-2---
--0h2-0h2-0h2-0h2-3-2---0h2-0h2-0h2-0h2-------

[ Tab from: http://www.guitartabs.cc/tabs/c/coal_chamber/loco_tab_ver_5.html ]
riff C
-------------|
-------------|
-------------|
--2--2---222-|  4x
--2--2---222-|
--2--2---222-|
      loco,

-------------|
-------------|
-------------|
--1--1---111-|  4x
--1--1---111-|
--1--1---111-|
      loco,

-----------------|
-----------------|
-----------------|
--0--------------|
--0--------------|
--0--------------|


riff E
----------------|
----------------|
----------------|
-1-2-1-0-1-2-1--|  4x
-1-2-1-0-1-2-1--|
-1-2-1-0-1-2-1--|

after this part there is a riff that i dont know what it is...

--0-0-0-0----0----0----0--0-----------------------------------
----------5~---5~---5~--5--5--4-4-4-4-5~-4-5~-4-5~--4-5-4-5---
--------------------------------------------------------------  2x
--------------------------------------------------------------
--------------------------------------------------------------
--------------------------------------------------------------


riff A
-----------------|----------------------|----------------------|
-----------------|----------------------|----------------------|
-----------------|----------------------|------------------3-2-|
--0--------------|--0-2-0-2-0-2-0-2-3-2-|--0-2-0-2-0-2-0-2-3-2-| 8x
--0--------------|--0-2-0-2-0-2-0-2-3-2-|--0-2-0-2-0-2-0-2-3-2-|
--0--------------|--0-2-0-2-0-2-0-2-3-2-|--0-2-0-2-0-2-0-2-----|

riff B
----------------------------------------------
----------------------------------------------
----------------------------------------------  4x
----------------------------------------------
----------------------------------------3-2---
--0h2-0h2-0h2-0h2-3-2---0h2-0h2-0h2-0h2-------


riff C
-------------|
-------------|
-------------|
--2--2---222-|  4x
--2--2---222-|
--2--2---222-|
      loco,

-------------|
-------------|
-------------|
--1--1---111-|  4x
--1--1---111-|
--1--1---111-|
      loco,

-----------------|
-----------------|
-----------------|
--0--------------|
--0--------------|
--0--------------|


riff E
----------------|
----------------|
----------------|
-1-2-1-0-1-2-1--|  
-1-2-1-0-1-2-1--|
-1-2-1-0-1-2-1--|


well i think thats it, if you want to give me some advices,
this is my e-mail:

   mmetal7@hotmail.com
  
       MEHDI 
          
Comments