Coal Chamber - Loco Chords & Tabs

 

Loco Chords & Tabs

Coal Chamber Chords & Tabs

Version: 4 Type: Tab 0 ratings
1 star 2 stars 3 stars 4 stars 5 stars
comments

Loco Tab

   
        GUITAR TABLATURE ONLINE

          URL: www.angelfire.com/bc/tablature
	EMAIL: tablature@canada.com

 ----------------------------------------------------------------------------------------------

	     SONG: Loco
	     BAND: Coal Chamber
	    ALBUM: Coal Chamber
   TRANSCRIBED BY: David Stagg (davey713@aol.com)
	     DATE: Unknown

 ----------------------------------------------------------------------------------------------

	TUNING: tune your guitar down 1.5 steps and then drop d (B,F#,B,E,G#,C#)

     INTRO:

   C#|-------------------------------------------------------|
   G#|--3-3-3-3-3-3-3-3-3-3-3-3---3---3---3-3---3---3-3-3----|
    E|--------------------------6---6---6-----6---6---6---6--|
    B|-------------------------------------------------------|
   F#|-------------------------------------------------------|
    B|-------------------------------------------------------|

     FILL 1:

   C#|-----|
   G#|-----|
    E|-----|
    B|--0--|
   F#|--0--|
    B|--0--|

     PRE-VERSE:
[ Tab from: http://www.guitartabs.cc/tabs/c/coal_chamber/loco_tab_ver_4.html ]
   C#|-----------------------------------------|
   G#|-----------------------------------------|
    E|-----------------------------------------|
    B|--0-2-0-2-0-2-0-2-3-2-0-2-0-2-0-2-0-8-7--|
   F#|--0-2-0-2-0-2-0-2-3-2-0-2-0-2-0-2-0-8-7--|
    B|--0-2-0-2-0-2-0-2-3-2-0-2-0-2-0-2-0-8-7--|

     VERSE: palm muted

   C#|-----------------------------------------|
   G#|-----------------------------------------|
    E|-----------------------------------------|
    B|-----------------------------------------|
   F#|-----------------------------------------|
    B|--0-2-0-2-0-2-0-2-3-2-0-2-0-2-0-2-0-8-7--|

     CHORUS:

     Play this four times

   C#|-----------------|
   G#|-----------------|
    E|-----------------|
    B|--2--2----2-2-2--|
   F#|--2--2----2-2-2--|
    B|--2--2----2-2-2--|

     Then play this four times

   C#|-----------------|
   G#|-----------------|
    E|-----------------|
    B|--1--1----1-1-1--|
   F#|--1--1----1-1-1--|
    B|--1--1----1-1-1--|

     INTERLUDE:

   C#|-----------------|
   G#|-----------------|
    E|-----------------|
    B|--1-2-1-0-1-2-3--|
   F#|--1-2-1-0-1-2-3--|
    B|--1-2-1-0-1-2-3--|



Comments