Coal Chamber - Loco Chords & Tabs

 

Loco Chords & Tabs

Coal Chamber Chords & Tabs

Version: 1 Type: Tab 0 ratings
1 star 2 stars 3 stars 4 stars 5 stars
comments

Loco Tab

   
Artist- Coal Chamber
Song- Loco
Tab- Jonathan Bissonnette

Tuning- B E A D G B


Intro

|-------0-------0----0----0---0---0--|
|--4--4---4--4^---4^---4^---4---4----|
|------------------------------------|
|------------------------------------|
|------------------------------------|
|------------------------------------|
  
|-------0-------0----0-----0---0---0--|
|--3--3---3--3^---3^---3^----3---3----|
|-------------------------------------|
|-------------------------------------|
|-------------------------------------|
|-------------------------------------|x4

|---|
|---|
|---|
|-2-|
|-2-|
|-0-|

Let ring

Verse

|------------------------------------------|
|------------------------------------------|
|------------------------------------------|
|------------------------------------------|
|-0-2-0-2-0-2-0-2-3-2--0-2-0-2-0-2-0-2-3-2-|
|-0-2-0-2-0-2-0-2-3-2--0-2-0-2-0-2-0-2-----|
  p.m................  p.m................
[ Tab from: http://www.guitartabs.cc/tabs/c/coal_chamber/loco_tab.html ]
|-----------------------------------------|  |-------------------|
|-----------------------------------------|  |-------------------|
|-----------------------------------------|  |-------------------|
|-------------------------------------5-4-|  |-------------------|
|0-2-0-2-0-2-0-2-3-2--0-2-0-2-0-4-4-4-3-2-|  |-0-2-0-2-0-4-4-2-5-|
|0-2-0-2-0-2-0-2-3-2--0-2-0-2-0-2-2-2-----|x4|-0-2-0-2-0-2-2-0-3-|
p.m.................  p.m......                pm.......
                                              Second time only 
|-------------------------------------------|
|-------------------------------------------|
|-------------------------------------------|
|-------------------------------------------|
|---------------------------------------3-2-|
|-0-2-0-2-0-2-0-2-3-2--0-2-0-2-0-2-0-2------|

|-------------------------------------------|
|-------------------------------------------|
|-------------------------------------------|
|--------------------------------------5-4--|
|--------------------------------4-4-4-3-2--|
|-0-2-0-2-0-2-0-2-3-2--0-2-0-2-0-2-2-2------| x2


Chorus

|--------------|   |-------------|
|--------------|   |-------------|
|--------------|   |-------------|
|-4--4--4-4-4--|   |-3--3--3-3-3-|
|-4--4--4-4-4--|   |-3--3--3-3-3-|
|-2--2--2-2-2--|x4 |-1--1--1-1-1-|x4

|---|
|---|
|---|
|-2-|
|-2-|
|-0-|
Let ring

Verse 2- Same as Verse 1

Chorus 2- Same as Chorus 1

Bridge

|----------------|
|----------------|
|----------------|
|----------------|
|-2/3/2---2/3-2--|
|-2/3/2-0-2/3-2--|x4

|-------------------------------------------------|
|-------------------------------------------------|
|-9-9-9/10--9-9-9/10--9-9-9/10--12-12-12/14-14-14-|
|-x-x-x-x---x-x-x-x---x-x-x-x----x--x--x--x--x--x-|
|-7-7-7/8---7-7-7/8---7-7-7/8--/10-10-10/12-12-12-|
|-------------------------------------------------|

Interlude- Same as Intro

Verse 3- Same as Verse 1

Chorus 3- Same as Chorus 1

Ending

|---------------|
|---------------|
|---------------|
|---------------|
|-2/3/2---2/3-2-|
|-2/3/2-0-2/3-2-|


Comments